  0
SECTION
  2
HEADER
  9
$ACADVER
  1
AC1014
  9
$HANDSEED
  5
FFFF
  9
$INSUNITS
 70
     4
  9
$MEASUREMENT
 70
     1
  0
ENDSEC
  0
SECTION
  2
TABLES
  0
TABLE
  2
VPORT
  5
8
330
0
100
AcDbSymbolTable
 70
     4
  0
VPORT
  5
2E
330
8
100
AcDbSymbolTableRecord
100
AcDbViewportTableRecord
  2
*ACTIVE
 70
     0
 10
0.0
 20
0.0
 11
1.0
 21
1.0
 12
210.0
 22
148.5
 13
0.0
 23
0.0
 14
10.0
 24
10.0
 15
10.0
 25
10.0
 16
0.0
 26
0.0
 36
1.0
 17
0.0
 27
0.0
 37
0.0
 40
341.0
 41
1.24
 42
50.0
 43
0.0
 44
0.0
 50
0.0
 51
0.0
 71
     0
 72
   100
 73
     1
 74
     3
 75
     0
 76
     0
 77
     0
 78
     0
  0
ENDTAB
  0
TABLE
  2
LTYPE
  5
5
330
0
100
AcDbSymbolTable
 70
     1
  0
LTYPE
  5
14
330
5
100
AcDbSymbolTableRecord
100
AcDbLinetypeTableRecord
  2
BYBLOCK
 70
     0
  3

 72
    65
 73
     0
 40
0.0
  0
LTYPE
  5
15
330
5
100
AcDbSymbolTableRecord
100
AcDbLinetypeTableRecord
  2
BYLAYER
 70
     0
  3

 72
    65
 73
     0
 40
0.0
  0
LTYPE
  5
16
330
5
100
AcDbSymbolTableRecord
100
AcDbLinetypeTableRecord
  2
CONTINUOUS
 70
     0
  3
Solid line
 72
    65
 73
     0
 40
0.0
  0
ENDTAB
  0
TABLE
  2
LAYER
  5
2
100
AcDbSymbolTable
 70
1
  0
LAYER
  5
50
100
AcDbSymbolTableRecord
100
AcDbLayerTableRecord
  2
0
 70
0
  6
CONTINUOUS
  0
ENDTAB
  0
TABLE
  2
STYLE
  5
3
330
0
100
AcDbSymbolTable
 70
     1
  0
STYLE
  5
11
330
3
100
AcDbSymbolTableRecord
100
AcDbTextStyleTableRecord
  2
STANDARD
 70
     0
 40
0.0
 41
1.0
 50
0.0
 71
     0
 42
2.5
  3
txt
  4

  0
ENDTAB
  0
TABLE
  2
VIEW
  5
6
330
0
100
AcDbSymbolTable
 70
     0
  0
ENDTAB
  0
TABLE
  2
UCS
  5
7
330
0
100
AcDbSymbolTable
 70
     0
  0
ENDTAB
  0
TABLE
  2
APPID
  5
9
330
0
100
AcDbSymbolTable
 70
     2
  0
APPID
  5
12
330
9
100
AcDbSymbolTableRecord
100
AcDbRegAppTableRecord
  2
ACAD
 70
     0
  0
ENDTAB
  0
TABLE
  2
DIMSTYLE
  5
A
330
0
100
AcDbSymbolTable
 70
     1
  0
DIMSTYLE
105
27
330
A
100
AcDbSymbolTableRecord
100
AcDbDimStyleTableRecord
  2
ISO-25
 70
     0
  3

  4

  5

  6

  7

 40
1.0
 41
2.5
 42
0.625
 43
3.75
 44
1.25
 45
0.0
 46
0.0
 47
0.0
 48
0.0
140
2.5
141
2.5
142
0.0
143
0.03937007874016
144
1.0
145
0.0
146
1.0
147
0.625
 71
     0
 72
     0
 73
     0
 74
     0
 75
     0
 76
     0
 77
     1
 78
     8
170
     0
171
     3
172
     1
173
     0
174
     0
175
     0
176
     0
177
     0
178
     0
270
     2
271
     2
272
     2
273
     2
274
     3
340
11
275
     0
280
     0
281
     0
282
     0
283
     0
284
     8
285
     0
286
     0
287
     3
288
     0
  0
ENDTAB
  0
TABLE
  2
BLOCK_RECORD
  5
1
330
0
100
AcDbSymbolTable
 70
     1
  0
BLOCK_RECORD
  5
1F
330
1
100
AcDbSymbolTableRecord
100
AcDbBlockTableRecord
  2
*MODEL_SPACE
  0
BLOCK_RECORD
  5
1B
330
1
100
AcDbSymbolTableRecord
100
AcDbBlockTableRecord
  2
*PAPER_SPACE
  0
ENDTAB
  0
ENDSEC
  0
SECTION
  2
BLOCKS
  0
BLOCK
  5
20
330
1F
100
AcDbEntity
  8
0
100
AcDbBlockBegin
  2
*MODEL_SPACE
 70
     0
 10
0.0
 20
0.0
 30
0.0
  3
*MODEL_SPACE
  1

  0
ENDBLK
  5
21
330
1F
100
AcDbEntity
  8
0
100
AcDbBlockEnd
  0
BLOCK
  5
1C
330
1B
100
AcDbEntity
 67
     1
  8
0
100
AcDbBlockBegin
  2
*PAPER_SPACE
  1

  0
ENDBLK
  5
1D
330
1B
100
AcDbEntity
 67
     1
  8
0
100
AcDbBlockEnd
  0
ENDSEC
  0
SECTION
  2
ENTITIES
  0
SPLINE
  5
100
100
AcDbEntity
  8
0
 62
7
100
AcDbSpline
 70
8
 71
3
 72
8
 73
4
 74
0
 40
0
 40
0
 40
0
 40
0
 40
1
 40
1
 40
1
 40
1
 10
151.750309
 20
109.999712
 30
0.0
 10
151.750309
 20
110.966211
 30
0.0
 10
150.966807
 20
111.749713
 30
0.0
 10
150.000308
 20
111.749713
 30
0.0
  0
SPLINE
  5
101
100
AcDbEntity
  8
0
 62
7
100
AcDbSpline
 70
8
 71
3
 72
8
 73
4
 74
0
 40
0
 40
0
 40
0
 40
0
 40
1
 40
1
 40
1
 40
1
 10
150.000308
 20
111.749713
 30
0.0
 10
149.033810
 20
111.749713
 30
0.0
 10
148.250308
 20
110.966211
 30
0.0
 10
148.250308
 20
109.999712
 30
0.0
  0
SPLINE
  5
102
100
AcDbEntity
  8
0
 62
7
100
AcDbSpline
 70
8
 71
3
 72
8
 73
4
 74
0
 40
0
 40
0
 40
0
 40
0
 40
1
 40
1
 40
1
 40
1
 10
148.250308
 20
109.999712
 30
0.0
 10
148.250308
 20
109.033214
 30
0.0
 10
149.033810
 20
108.249712
 30
0.0
 10
150.000308
 20
108.249712
 30
0.0
  0
SPLINE
  5
103
100
AcDbEntity
  8
0
 62
7
100
AcDbSpline
 70
8
 71
3
 72
8
 73
4
 74
0
 40
0
 40
0
 40
0
 40
0
 40
1
 40
1
 40
1
 40
1
 10
150.000308
 20
108.249712
 30
0.0
 10
150.966807
 20
108.249712
 30
0.0
 10
151.750309
 20
109.033214
 30
0.0
 10
151.750309
 20
109.999712
 30
0.0
  0
SPLINE
  5
104
100
AcDbEntity
  8
0
 62
7
100
AcDbSpline
 70
8
 71
3
 72
8
 73
4
 74
0
 40
0
 40
0
 40
0
 40
0
 40
1
 40
1
 40
1
 40
1
 10
131.750308
 20
129.999727
 30
0.0
 10
131.750308
 20
130.624942
 30
0.0
 10
131.416760
 20
131.202664
 30
0.0
 10
130.875308
 20
131.515272
 30
0.0
  0
SPLINE
  5
105
100
AcDbEntity
  8
0
 62
7
100
AcDbSpline
 70
8
 71
3
 72
8
 73
4
 74
0
 40
0
 40
0
 40
0
 40
0
 40
1
 40
1
 40
1
 40
1
 10
130.875308
 20
131.515272
 30
0.0
 10
130.333856
 20
131.827879
 30
0.0
 10
129.666759
 20
131.827879
 30
0.0
 10
129.125307
 20
131.515272
 30
0.0
  0
SPLINE
  5
106
100
AcDbEntity
  8
0
 62
7
100
AcDbSpline
 70
8
 71
3
 72
8
 73
4
 74
0
 40
0
 40
0
 40
0
 40
0
 40
1
 40
1
 40
1
 40
1
 10
129.125307
 20
131.515272
 30
0.0
 10
128.583855
 20
131.202664
 30
0.0
 10
128.250307
 20
130.624942
 30
0.0
 10
128.250307
 20
129.999727
 30
0.0
  0
SPLINE
  5
107
100
AcDbEntity
  8
0
 62
7
100
AcDbSpline
 70
8
 71
3
 72
8
 73
4
 74
0
 40
0
 40
0
 40
0
 40
0
 40
1
 40
1
 40
1
 40
1
 10
128.250307
 20
129.999727
 30
0.0
 10
128.250307
 20
129.374512
 30
0.0
 10
128.583855
 20
128.796789
 30
0.0
 10
129.125307
 20
128.484182
 30
0.0
  0
SPLINE
  5
108
100
AcDbEntity
  8
0
 62
7
100
AcDbSpline
 70
8
 71
3
 72
8
 73
4
 74
0
 40
0
 40
0
 40
0
 40
0
 40
1
 40
1
 40
1
 40
1
 10
129.125307
 20
128.484182
 30
0.0
 10
129.666759
 20
128.171574
 30
0.0
 10
130.333856
 20
128.171574
 30
0.0
 10
130.875308
 20
128.484182
 30
0.0
  0
SPLINE
  5
109
100
AcDbEntity
  8
0
 62
7
100
AcDbSpline
 70
8
 71
3
 72
8
 73
4
 74
0
 40
0
 40
0
 40
0
 40
0
 40
1
 40
1
 40
1
 40
1
 10
130.875308
 20
128.484182
 30
0.0
 10
131.416760
 20
128.796789
 30
0.0
 10
131.750308
 20
129.374512
 30
0.0
 10
131.750308
 20
129.999727
 30
0.0
  0
LWPOLYLINE
  5
10a
100
AcDbEntity
  8
0
 62
7
100
AcDbPolyline
 90
1
 70
1
 10
151.750309
 20
109.999712
 30
0.0
  0
SPLINE
  5
10b
100
AcDbEntity
  8
0
 62
7
100
AcDbSpline
 70
8
 71
3
 72
8
 73
4
 74
0
 40
0
 40
0
 40
0
 40
0
 40
1
 40
1
 40
1
 40
1
 10
51.750302
 20
69.999711
 30
0.0
 10
51.749382
 20
70.965558
 30
0.0
 10
50.966150
 20
71.748044
 30
0.0
 10
50.000303
 20
71.748044
 30
0.0
  0
SPLINE
  5
10c
100
AcDbEntity
  8
0
 62
7
100
AcDbSpline
 70
8
 71
3
 72
8
 73
4
 74
0
 40
0
 40
0
 40
0
 40
0
 40
1
 40
1
 40
1
 40
1
 10
50.000303
 20
71.748044
 30
0.0
 10
49.034455
 20
71.748044
 30
0.0
 10
48.251223
 20
70.965558
 30
0.0
 10
48.250303
 20
69.999711
 30
0.0
  0
SPLINE
  5
10d
100
AcDbEntity
  8
0
 62
7
100
AcDbSpline
 70
8
 71
3
 72
8
 73
4
 74
0
 40
0
 40
0
 40
0
 40
0
 40
1
 40
1
 40
1
 40
1
 10
48.250303
 20
69.999711
 30
0.0
 10
48.251223
 20
69.033864
 30
0.0
 10
49.034455
 20
68.251377
 30
0.0
 10
50.000303
 20
68.251377
 30
0.0
  0
SPLINE
  5
10e
100
AcDbEntity
  8
0
 62
7
100
AcDbSpline
 70
8
 71
3
 72
8
 73
4
 74
0
 40
0
 40
0
 40
0
 40
0
 40
1
 40
1
 40
1
 40
1
 10
50.000303
 20
68.251377
 30
0.0
 10
50.966150
 20
68.251377
 30
0.0
 10
51.749382
 20
69.033864
 30
0.0
 10
51.750302
 20
69.999711
 30
0.0
  0
LWPOLYLINE
  5
10f
100
AcDbEntity
  8
0
 62
7
100
AcDbPolyline
 90
1
 70
1
 10
131.750308
 20
129.999727
 30
0.0
  0
SPLINE
  5
110
100
AcDbEntity
  8
0
 62
7
100
AcDbSpline
 70
8
 71
3
 72
8
 73
4
 74
0
 40
0
 40
0
 40
0
 40
0
 40
1
 40
1
 40
1
 40
1
 10
11.750306
 20
89.999725
 30
0.0
 10
11.750306
 20
90.624942
 30
0.0
 10
11.416756
 20
91.202667
 30
0.0
 10
10.875302
 20
91.515276
 30
0.0
  0
SPLINE
  5
111
100
AcDbEntity
  8
0
 62
7
100
AcDbSpline
 70
8
 71
3
 72
8
 73
4
 74
0
 40
0
 40
0
 40
0
 40
0
 40
1
 40
1
 40
1
 40
1
 10
10.875302
 20
91.515276
 30
0.0
 10
10.333848
 20
91.827884
 30
0.0
 10
9.666749
 20
91.827884
 30
0.0
 10
9.125295
 20
91.515276
 30
0.0
  0
SPLINE
  5
112
100
AcDbEntity
  8
0
 62
7
100
AcDbSpline
 70
8
 71
3
 72
8
 73
4
 74
0
 40
0
 40
0
 40
0
 40
0
 40
1
 40
1
 40
1
 40
1
 10
9.125295
 20
91.515276
 30
0.0
 10
8.583841
 20
91.202667
 30
0.0
 10
8.250291
 20
90.624942
 30
0.0
 10
8.250291
 20
89.999725
 30
0.0
  0
SPLINE
  5
113
100
AcDbEntity
  8
0
 62
7
100
AcDbSpline
 70
8
 71
3
 72
8
 73
4
 74
0
 40
0
 40
0
 40
0
 40
0
 40
1
 40
1
 40
1
 40
1
 10
8.250291
 20
89.999725
 30
0.0
 10
8.250291
 20
89.374507
 30
0.0
 10
8.583841
 20
88.796783
 30
0.0
 10
9.125295
 20
88.484174
 30
0.0
  0
SPLINE
  5
114
100
AcDbEntity
  8
0
 62
7
100
AcDbSpline
 70
8
 71
3
 72
8
 73
4
 74
0
 40
0
 40
0
 40
0
 40
0
 40
1
 40
1
 40
1
 40
1
 10
9.125295
 20
88.484174
 30
0.0
 10
9.666749
 20
88.171565
 30
0.0
 10
10.333848
 20
88.171565
 30
0.0
 10
10.875302
 20
88.484174
 30
0.0
  0
SPLINE
  5
115
100
AcDbEntity
  8
0
 62
7
100
AcDbSpline
 70
8
 71
3
 72
8
 73
4
 74
0
 40
0
 40
0
 40
0
 40
0
 40
1
 40
1
 40
1
 40
1
 10
10.875302
 20
88.484174
 30
0.0
 10
11.416756
 20
88.796783
 30
0.0
 10
11.750306
 20
89.374507
 30
0.0
 10
11.750306
 20
89.999725
 30
0.0
  0
LWPOLYLINE
  5
116
100
AcDbEntity
  8
0
 62
7
100
AcDbPolyline
 90
1
 70
1
 10
51.750302
 20
69.999711
 30
0.0
  0
SPLINE
  5
117
100
AcDbEntity
  8
0
 62
7
100
AcDbSpline
 70
8
 71
3
 72
8
 73
4
 74
0
 40
0
 40
0
 40
0
 40
0
 40
1
 40
1
 40
1
 40
1
 10
51.750302
 20
89.999725
 30
0.0
 10
51.749382
 20
90.965572
 30
0.0
 10
50.966150
 20
91.748058
 30
0.0
 10
50.000303
 20
91.748058
 30
0.0
  0
SPLINE
  5
118
100
AcDbEntity
  8
0
 62
7
100
AcDbSpline
 70
8
 71
3
 72
8
 73
4
 74
0
 40
0
 40
0
 40
0
 40
0
 40
1
 40
1
 40
1
 40
1
 10
50.000303
 20
91.748058
 30
0.0
 10
49.034455
 20
91.748058
 30
0.0
 10
48.251223
 20
90.965572
 30
0.0
 10
48.250303
 20
89.999725
 30
0.0
  0
SPLINE
  5
119
100
AcDbEntity
  8
0
 62
7
100
AcDbSpline
 70
8
 71
3
 72
8
 73
4
 74
0
 40
0
 40
0
 40
0
 40
0
 40
1
 40
1
 40
1
 40
1
 10
48.250303
 20
89.999725
 30
0.0
 10
48.251223
 20
89.033878
 30
0.0
 10
49.034455
 20
88.251392
 30
0.0
 10
50.000303
 20
88.251392
 30
0.0
  0
SPLINE
  5
11a
100
AcDbEntity
  8
0
 62
7
100
AcDbSpline
 70
8
 71
3
 72
8
 73
4
 74
0
 40
0
 40
0
 40
0
 40
0
 40
1
 40
1
 40
1
 40
1
 10
50.000303
 20
88.251392
 30
0.0
 10
50.966150
 20
88.251392
 30
0.0
 10
51.749382
 20
89.033878
 30
0.0
 10
51.750302
 20
89.999725
 30
0.0
  0
LWPOLYLINE
  5
11b
100
AcDbEntity
  8
0
 62
7
100
AcDbPolyline
 90
1
 70
1
 10
11.750306
 20
89.999725
 30
0.0
  0
SPLINE
  5
11c
100
AcDbEntity
  8
0
 62
7
100
AcDbSpline
 70
8
 71
3
 72
8
 73
4
 74
0
 40
0
 40
0
 40
0
 40
0
 40
1
 40
1
 40
1
 40
1
 10
151.750309
 20
49.999723
 30
0.0
 10
151.750309
 20
50.966222
 30
0.0
 10
150.966807
 20
51.749723
 30
0.0
 10
150.000308
 20
51.749723
 30
0.0
  0
SPLINE
  5
11d
100
AcDbEntity
  8
0
 62
7
100
AcDbSpline
 70
8
 71
3
 72
8
 73
4
 74
0
 40
0
 40
0
 40
0
 40
0
 40
1
 40
1
 40
1
 40
1
 10
150.000308
 20
51.749723
 30
0.0
 10
149.033810
 20
51.749723
 30
0.0
 10
148.250308
 20
50.966222
 30
0.0
 10
148.250308
 20
49.999723
 30
0.0
  0
SPLINE
  5
11e
100
AcDbEntity
  8
0
 62
7
100
AcDbSpline
 70
8
 71
3
 72
8
 73
4
 74
0
 40
0
 40
0
 40
0
 40
0
 40
1
 40
1
 40
1
 40
1
 10
148.250308
 20
49.999723
 30
0.0
 10
148.250308
 20
49.033225
 30
0.0
 10
149.033810
 20
48.249723
 30
0.0
 10
150.000308
 20
48.249723
 30
0.0
  0
SPLINE
  5
11f
100
AcDbEntity
  8
0
 62
7
100
AcDbSpline
 70
8
 71
3
 72
8
 73
4
 74
0
 40
0
 40
0
 40
0
 40
0
 40
1
 40
1
 40
1
 40
1
 10
150.000308
 20
48.249723
 30
0.0
 10
150.966807
 20
48.249723
 30
0.0
 10
151.750309
 20
49.033225
 30
0.0
 10
151.750309
 20
49.999723
 30
0.0
  0
LWPOLYLINE
  5
120
100
AcDbEntity
  8
0
 62
7
100
AcDbPolyline
 90
1
 70
1
 10
51.750302
 20
89.999725
 30
0.0
  0
SPLINE
  5
121
100
AcDbEntity
  8
0
 62
7
100
AcDbSpline
 70
8
 71
3
 72
8
 73
4
 74
0
 40
0
 40
0
 40
0
 40
0
 40
1
 40
1
 40
1
 40
1
 10
171.750310
 20
9.999721
 30
0.0
 10
171.750310
 20
10.624936
 30
0.0
 10
171.416761
 20
11.202659
 30
0.0
 10
170.875309
 20
11.515266
 30
0.0
  0
SPLINE
  5
122
100
AcDbEntity
  8
0
 62
7
100
AcDbSpline
 70
8
 71
3
 72
8
 73
4
 74
0
 40
0
 40
0
 40
0
 40
0
 40
1
 40
1
 40
1
 40
1
 10
170.875309
 20
11.515266
 30
0.0
 10
170.333857
 20
11.827874
 30
0.0
 10
169.666761
 20
11.827874
 30
0.0
 10
169.125309
 20
11.515266
 30
0.0
  0
SPLINE
  5
123
100
AcDbEntity
  8
0
 62
7
100
AcDbSpline
 70
8
 71
3
 72
8
 73
4
 74
0
 40
0
 40
0
 40
0
 40
0
 40
1
 40
1
 40
1
 40
1
 10
169.125309
 20
11.515266
 30
0.0
 10
168.583857
 20
11.202659
 30
0.0
 10
168.250309
 20
10.624936
 30
0.0
 10
168.250309
 20
9.999721
 30
0.0
  0
SPLINE
  5
124
100
AcDbEntity
  8
0
 62
7
100
AcDbSpline
 70
8
 71
3
 72
8
 73
4
 74
0
 40
0
 40
0
 40
0
 40
0
 40
1
 40
1
 40
1
 40
1
 10
168.250309
 20
9.999721
 30
0.0
 10
168.250309
 20
9.374506
 30
0.0
 10
168.583857
 20
8.796784
 30
0.0
 10
169.125309
 20
8.484176
 30
0.0
  0
SPLINE
  5
125
100
AcDbEntity
  8
0
 62
7
100
AcDbSpline
 70
8
 71
3
 72
8
 73
4
 74
0
 40
0
 40
0
 40
0
 40
0
 40
1
 40
1
 40
1
 40
1
 10
169.125309
 20
8.484176
 30
0.0
 10
169.666761
 20
8.171569
 30
0.0
 10
170.333857
 20
8.171569
 30
0.0
 10
170.875309
 20
8.484176
 30
0.0
  0
SPLINE
  5
126
100
AcDbEntity
  8
0
 62
7
100
AcDbSpline
 70
8
 71
3
 72
8
 73
4
 74
0
 40
0
 40
0
 40
0
 40
0
 40
1
 40
1
 40
1
 40
1
 10
170.875309
 20
8.484176
 30
0.0
 10
171.416761
 20
8.796784
 30
0.0
 10
171.750310
 20
9.374506
 30
0.0
 10
171.750310
 20
9.999721
 30
0.0
  0
LWPOLYLINE
  5
127
100
AcDbEntity
  8
0
 62
7
100
AcDbPolyline
 90
1
 70
1
 10
151.750309
 20
49.999723
 30
0.0
  0
SPLINE
  5
128
100
AcDbEntity
  8
0
 62
7
100
AcDbSpline
 70
8
 71
3
 72
8
 73
4
 74
0
 40
0
 40
0
 40
0
 40
0
 40
1
 40
1
 40
1
 40
1
 10
171.750310
 20
49.999723
 30
0.0
 10
171.750310
 20
50.624938
 30
0.0
 10
171.416761
 20
51.202661
 30
0.0
 10
170.875309
 20
51.515268
 30
0.0
  0
SPLINE
  5
129
100
AcDbEntity
  8
0
 62
7
100
AcDbSpline
 70
8
 71
3
 72
8
 73
4
 74
0
 40
0
 40
0
 40
0
 40
0
 40
1
 40
1
 40
1
 40
1
 10
170.875309
 20
51.515268
 30
0.0
 10
170.333857
 20
51.827876
 30
0.0
 10
169.666761
 20
51.827876
 30
0.0
 10
169.125309
 20
51.515268
 30
0.0
  0
SPLINE
  5
12a
100
AcDbEntity
  8
0
 62
7
100
AcDbSpline
 70
8
 71
3
 72
8
 73
4
 74
0
 40
0
 40
0
 40
0
 40
0
 40
1
 40
1
 40
1
 40
1
 10
169.125309
 20
51.515268
 30
0.0
 10
168.583857
 20
51.202661
 30
0.0
 10
168.250309
 20
50.624938
 30
0.0
 10
168.250309
 20
49.999723
 30
0.0
  0
SPLINE
  5
12b
100
AcDbEntity
  8
0
 62
7
100
AcDbSpline
 70
8
 71
3
 72
8
 73
4
 74
0
 40
0
 40
0
 40
0
 40
0
 40
1
 40
1
 40
1
 40
1
 10
168.250309
 20
49.999723
 30
0.0
 10
168.250309
 20
49.374508
 30
0.0
 10
168.583857
 20
48.796786
 30
0.0
 10
169.125309
 20
48.484178
 30
0.0
  0
SPLINE
  5
12c
100
AcDbEntity
  8
0
 62
7
100
AcDbSpline
 70
8
 71
3
 72
8
 73
4
 74
0
 40
0
 40
0
 40
0
 40
0
 40
1
 40
1
 40
1
 40
1
 10
169.125309
 20
48.484178
 30
0.0
 10
169.666761
 20
48.171571
 30
0.0
 10
170.333857
 20
48.171571
 30
0.0
 10
170.875309
 20
48.484178
 30
0.0
  0
SPLINE
  5
12d
100
AcDbEntity
  8
0
 62
7
100
AcDbSpline
 70
8
 71
3
 72
8
 73
4
 74
0
 40
0
 40
0
 40
0
 40
0
 40
1
 40
1
 40
1
 40
1
 10
170.875309
 20
48.484178
 30
0.0
 10
171.416761
 20
48.796786
 30
0.0
 10
171.750310
 20
49.374508
 30
0.0
 10
171.750310
 20
49.999723
 30
0.0
  0
LWPOLYLINE
  5
12e
100
AcDbEntity
  8
0
 62
7
100
AcDbPolyline
 90
1
 70
1
 10
171.750310
 20
9.999721
 30
0.0
  0
SPLINE
  5
12f
100
AcDbEntity
  8
0
 62
7
100
AcDbSpline
 70
8
 71
3
 72
8
 73
4
 74
0
 40
0
 40
0
 40
0
 40
0
 40
1
 40
1
 40
1
 40
1
 10
291.750318
 20
109.999712
 30
0.0
 10
291.747746
 20
110.964386
 30
0.0
 10
290.965001
 20
111.745048
 30
0.0
 10
290.000324
 20
111.745048
 30
0.0
  0
SPLINE
  5
130
100
AcDbEntity
  8
0
 62
7
100
AcDbSpline
 70
8
 71
3
 72
8
 73
4
 74
0
 40
0
 40
0
 40
0
 40
0
 40
1
 40
1
 40
1
 40
1
 10
290.000324
 20
111.745048
 30
0.0
 10
289.035647
 20
111.745048
 30
0.0
 10
288.252901
 20
110.964386
 30
0.0
 10
288.250330
 20
109.999712
 30
0.0
  0
SPLINE
  5
131
100
AcDbEntity
  8
0
 62
7
100
AcDbSpline
 70
8
 71
3
 72
8
 73
4
 74
0
 40
0
 40
0
 40
0
 40
0
 40
1
 40
1
 40
1
 40
1
 10
288.250330
 20
109.999712
 30
0.0
 10
288.252901
 20
109.035039
 30
0.0
 10
289.035647
 20
108.254377
 30
0.0
 10
290.000324
 20
108.254377
 30
0.0
  0
SPLINE
  5
132
100
AcDbEntity
  8
0
 62
7
100
AcDbSpline
 70
8
 71
3
 72
8
 73
4
 74
0
 40
0
 40
0
 40
0
 40
0
 40
1
 40
1
 40
1
 40
1
 10
290.000324
 20
108.254377
 30
0.0
 10
290.965001
 20
108.254377
 30
0.0
 10
291.747746
 20
109.035039
 30
0.0
 10
291.750318
 20
109.999712
 30
0.0
  0
LWPOLYLINE
  5
133
100
AcDbEntity
  8
0
 62
7
100
AcDbPolyline
 90
1
 70
1
 10
171.750310
 20
49.999723
 30
0.0
  0
SPLINE
  5
134
100
AcDbEntity
  8
0
 62
7
100
AcDbSpline
 70
8
 71
3
 72
8
 73
4
 74
0
 40
0
 40
0
 40
0
 40
0
 40
1
 40
1
 40
1
 40
1
 10
171.750310
 20
29.999709
 30
0.0
 10
171.750310
 20
30.624924
 30
0.0
 10
171.416761
 20
31.202646
 30
0.0
 10
170.875309
 20
31.515254
 30
0.0
  0
SPLINE
  5
135
100
AcDbEntity
  8
0
 62
7
100
AcDbSpline
 70
8
 71
3
 72
8
 73
4
 74
0
 40
0
 40
0
 40
0
 40
0
 40
1
 40
1
 40
1
 40
1
 10
170.875309
 20
31.515254
 30
0.0
 10
170.333857
 20
31.827861
 30
0.0
 10
169.666761
 20
31.827861
 30
0.0
 10
169.125309
 20
31.515254
 30
0.0
  0
SPLINE
  5
136
100
AcDbEntity
  8
0
 62
7
100
AcDbSpline
 70
8
 71
3
 72
8
 73
4
 74
0
 40
0
 40
0
 40
0
 40
0
 40
1
 40
1
 40
1
 40
1
 10
169.125309
 20
31.515254
 30
0.0
 10
168.583857
 20
31.202646
 30
0.0
 10
168.250309
 20
30.624924
 30
0.0
 10
168.250309
 20
29.999709
 30
0.0
  0
SPLINE
  5
137
100
AcDbEntity
  8
0
 62
7
100
AcDbSpline
 70
8
 71
3
 72
8
 73
4
 74
0
 40
0
 40
0
 40
0
 40
0
 40
1
 40
1
 40
1
 40
1
 10
168.250309
 20
29.999709
 30
0.0
 10
168.250309
 20
29.374494
 30
0.0
 10
168.583857
 20
28.796771
 30
0.0
 10
169.125309
 20
28.484164
 30
0.0
  0
SPLINE
  5
138
100
AcDbEntity
  8
0
 62
7
100
AcDbSpline
 70
8
 71
3
 72
8
 73
4
 74
0
 40
0
 40
0
 40
0
 40
0
 40
1
 40
1
 40
1
 40
1
 10
169.125309
 20
28.484164
 30
0.0
 10
169.666761
 20
28.171557
 30
0.0
 10
170.333857
 20
28.171557
 30
0.0
 10
170.875309
 20
28.484164
 30
0.0
  0
SPLINE
  5
139
100
AcDbEntity
  8
0
 62
7
100
AcDbSpline
 70
8
 71
3
 72
8
 73
4
 74
0
 40
0
 40
0
 40
0
 40
0
 40
1
 40
1
 40
1
 40
1
 10
170.875309
 20
28.484164
 30
0.0
 10
171.416761
 20
28.796771
 30
0.0
 10
171.750310
 20
29.374494
 30
0.0
 10
171.750310
 20
29.999709
 30
0.0
  0
LWPOLYLINE
  5
13a
100
AcDbEntity
  8
0
 62
7
100
AcDbPolyline
 90
1
 70
1
 10
291.750318
 20
109.999712
 30
0.0
  0
SPLINE
  5
13b
100
AcDbEntity
  8
0
 62
7
100
AcDbSpline
 70
8
 71
3
 72
8
 73
4
 74
0
 40
0
 40
0
 40
0
 40
0
 40
1
 40
1
 40
1
 40
1
 10
211.750311
 20
109.999712
 30
0.0
 10
211.749318
 20
110.965507
 30
0.0
 10
210.966108
 20
111.747912
 30
0.0
 10
210.000312
 20
111.747912
 30
0.0
  0
SPLINE
  5
13c
100
AcDbEntity
  8
0
 62
7
100
AcDbSpline
 70
8
 71
3
 72
8
 73
4
 74
0
 40
0
 40
0
 40
0
 40
0
 40
1
 40
1
 40
1
 40
1
 10
210.000312
 20
111.747912
 30
0.0
 10
209.034517
 20
111.747912
 30
0.0
 10
208.251307
 20
110.965507
 30
0.0
 10
208.250313
 20
109.999712
 30
0.0
  0
SPLINE
  5
13d
100
AcDbEntity
  8
0
 62
7
100
AcDbSpline
 70
8
 71
3
 72
8
 73
4
 74
0
 40
0
 40
0
 40
0
 40
0
 40
1
 40
1
 40
1
 40
1
 10
208.250313
 20
109.999712
 30
0.0
 10
208.251307
 20
109.033918
 30
0.0
 10
209.034517
 20
108.251513
 30
0.0
 10
210.000312
 20
108.251513
 30
0.0
  0
SPLINE
  5
13e
100
AcDbEntity
  8
0
 62
7
100
AcDbSpline
 70
8
 71
3
 72
8
 73
4
 74
0
 40
0
 40
0
 40
0
 40
0
 40
1
 40
1
 40
1
 40
1
 10
210.000312
 20
108.251513
 30
0.0
 10
210.966108
 20
108.251513
 30
0.0
 10
211.749318
 20
109.033918
 30
0.0
 10
211.750311
 20
109.999712
 30
0.0
  0
LWPOLYLINE
  5
13f
100
AcDbEntity
  8
0
 62
7
100
AcDbPolyline
 90
1
 70
1
 10
171.750310
 20
29.999709
 30
0.0
  0
SPLINE
  5
140
100
AcDbEntity
  8
0
 62
7
100
AcDbSpline
 70
8
 71
3
 72
8
 73
4
 74
0
 40
0
 40
0
 40
0
 40
0
 40
1
 40
1
 40
1
 40
1
 10
171.750310
 20
169.999728
 30
0.0
 10
171.750310
 20
170.624943
 30
0.0
 10
171.416761
 20
171.202666
 30
0.0
 10
170.875309
 20
171.515273
 30
0.0
  0
SPLINE
  5
141
100
AcDbEntity
  8
0
 62
7
100
AcDbSpline
 70
8
 71
3
 72
8
 73
4
 74
0
 40
0
 40
0
 40
0
 40
0
 40
1
 40
1
 40
1
 40
1
 10
170.875309
 20
171.515273
 30
0.0
 10
170.333857
 20
171.827881
 30
0.0
 10
169.666761
 20
171.827881
 30
0.0
 10
169.125309
 20
171.515273
 30
0.0
  0
SPLINE
  5
142
100
AcDbEntity
  8
0
 62
7
100
AcDbSpline
 70
8
 71
3
 72
8
 73
4
 74
0
 40
0
 40
0
 40
0
 40
0
 40
1
 40
1
 40
1
 40
1
 10
169.125309
 20
171.515273
 30
0.0
 10
168.583857
 20
171.202666
 30
0.0
 10
168.250309
 20
170.624943
 30
0.0
 10
168.250309
 20
169.999728
 30
0.0
  0
SPLINE
  5
143
100
AcDbEntity
  8
0
 62
7
100
AcDbSpline
 70
8
 71
3
 72
8
 73
4
 74
0
 40
0
 40
0
 40
0
 40
0
 40
1
 40
1
 40
1
 40
1
 10
168.250309
 20
169.999728
 30
0.0
 10
168.250309
 20
169.374513
 30
0.0
 10
168.583857
 20
168.796791
 30
0.0
 10
169.125309
 20
168.484183
 30
0.0
  0
SPLINE
  5
144
100
AcDbEntity
  8
0
 62
7
100
AcDbSpline
 70
8
 71
3
 72
8
 73
4
 74
0
 40
0
 40
0
 40
0
 40
0
 40
1
 40
1
 40
1
 40
1
 10
169.125309
 20
168.484183
 30
0.0
 10
169.666761
 20
168.171576
 30
0.0
 10
170.333857
 20
168.171576
 30
0.0
 10
170.875309
 20
168.484183
 30
0.0
  0
SPLINE
  5
145
100
AcDbEntity
  8
0
 62
7
100
AcDbSpline
 70
8
 71
3
 72
8
 73
4
 74
0
 40
0
 40
0
 40
0
 40
0
 40
1
 40
1
 40
1
 40
1
 10
170.875309
 20
168.484183
 30
0.0
 10
171.416761
 20
168.796791
 30
0.0
 10
171.750310
 20
169.374513
 30
0.0
 10
171.750310
 20
169.999728
 30
0.0
  0
LWPOLYLINE
  5
146
100
AcDbEntity
  8
0
 62
7
100
AcDbPolyline
 90
1
 70
1
 10
211.750311
 20
109.999712
 30
0.0
  0
SPLINE
  5
147
100
AcDbEntity
  8
0
 62
7
100
AcDbSpline
 70
8
 71
3
 72
8
 73
4
 74
0
 40
0
 40
0
 40
0
 40
0
 40
1
 40
1
 40
1
 40
1
 10
171.750310
 20
149.999714
 30
0.0
 10
171.750310
 20
150.624929
 30
0.0
 10
171.416761
 20
151.202652
 30
0.0
 10
170.875309
 20
151.515259
 30
0.0
  0
SPLINE
  5
148
100
AcDbEntity
  8
0
 62
7
100
AcDbSpline
 70
8
 71
3
 72
8
 73
4
 74
0
 40
0
 40
0
 40
0
 40
0
 40
1
 40
1
 40
1
 40
1
 10
170.875309
 20
151.515259
 30
0.0
 10
170.333857
 20
151.827867
 30
0.0
 10
169.666761
 20
151.827867
 30
0.0
 10
169.125309
 20
151.515259
 30
0.0
  0
SPLINE
  5
149
100
AcDbEntity
  8
0
 62
7
100
AcDbSpline
 70
8
 71
3
 72
8
 73
4
 74
0
 40
0
 40
0
 40
0
 40
0
 40
1
 40
1
 40
1
 40
1
 10
169.125309
 20
151.515259
 30
0.0
 10
168.583857
 20
151.202652
 30
0.0
 10
168.250309
 20
150.624929
 30
0.0
 10
168.250309
 20
149.999714
 30
0.0
  0
SPLINE
  5
14a
100
AcDbEntity
  8
0
 62
7
100
AcDbSpline
 70
8
 71
3
 72
8
 73
4
 74
0
 40
0
 40
0
 40
0
 40
0
 40
1
 40
1
 40
1
 40
1
 10
168.250309
 20
149.999714
 30
0.0
 10
168.250309
 20
149.374499
 30
0.0
 10
168.583857
 20
148.796777
 30
0.0
 10
169.125309
 20
148.484169
 30
0.0
  0
SPLINE
  5
14b
100
AcDbEntity
  8
0
 62
7
100
AcDbSpline
 70
8
 71
3
 72
8
 73
4
 74
0
 40
0
 40
0
 40
0
 40
0
 40
1
 40
1
 40
1
 40
1
 10
169.125309
 20
148.484169
 30
0.0
 10
169.666761
 20
148.171562
 30
0.0
 10
170.333857
 20
148.171562
 30
0.0
 10
170.875309
 20
148.484169
 30
0.0
  0
SPLINE
  5
14c
100
AcDbEntity
  8
0
 62
7
100
AcDbSpline
 70
8
 71
3
 72
8
 73
4
 74
0
 40
0
 40
0
 40
0
 40
0
 40
1
 40
1
 40
1
 40
1
 10
170.875309
 20
148.484169
 30
0.0
 10
171.416761
 20
148.796777
 30
0.0
 10
171.750310
 20
149.374499
 30
0.0
 10
171.750310
 20
149.999714
 30
0.0
  0
LWPOLYLINE
  5
14d
100
AcDbEntity
  8
0
 62
7
100
AcDbPolyline
 90
1
 70
1
 10
171.750310
 20
169.999728
 30
0.0
  0
SPLINE
  5
14e
100
AcDbEntity
  8
0
 62
7
100
AcDbSpline
 70
8
 71
3
 72
8
 73
4
 74
0
 40
0
 40
0
 40
0
 40
0
 40
1
 40
1
 40
1
 40
1
 10
231.750312
 20
149.999714
 30
0.0
 10
231.749392
 20
150.965561
 30
0.0
 10
230.966161
 20
151.748048
 30
0.0
 10
230.000313
 20
151.748048
 30
0.0
  0
SPLINE
  5
14f
100
AcDbEntity
  8
0
 62
7
100
AcDbSpline
 70
8
 71
3
 72
8
 73
4
 74
0
 40
0
 40
0
 40
0
 40
0
 40
1
 40
1
 40
1
 40
1
 10
230.000313
 20
151.748048
 30
0.0
 10
229.034466
 20
151.748048
 30
0.0
 10
228.251234
 20
150.965561
 30
0.0
 10
228.250314
 20
149.999714
 30
0.0
  0
SPLINE
  5
150
100
AcDbEntity
  8
0
 62
7
100
AcDbSpline
 70
8
 71
3
 72
8
 73
4
 74
0
 40
0
 40
0
 40
0
 40
0
 40
1
 40
1
 40
1
 40
1
 10
228.250314
 20
149.999714
 30
0.0
 10
228.251234
 20
149.033867
 30
0.0
 10
229.034466
 20
148.251381
 30
0.0
 10
230.000313
 20
148.251381
 30
0.0
  0
SPLINE
  5
151
100
AcDbEntity
  8
0
 62
7
100
AcDbSpline
 70
8
 71
3
 72
8
 73
4
 74
0
 40
0
 40
0
 40
0
 40
0
 40
1
 40
1
 40
1
 40
1
 10
230.000313
 20
148.251381
 30
0.0
 10
230.966161
 20
148.251381
 30
0.0
 10
231.749392
 20
149.033867
 30
0.0
 10
231.750312
 20
149.999714
 30
0.0
  0
LWPOLYLINE
  5
152
100
AcDbEntity
  8
0
 62
7
100
AcDbPolyline
 90
1
 70
1
 10
171.750310
 20
149.999714
 30
0.0
  0
SPLINE
  5
153
100
AcDbEntity
  8
0
 62
7
100
AcDbSpline
 70
8
 71
3
 72
8
 73
4
 74
0
 40
0
 40
0
 40
0
 40
0
 40
1
 40
1
 40
1
 40
1
 10
251.750316
 20
49.999723
 30
0.0
 10
251.750316
 20
50.624938
 30
0.0
 10
251.416768
 20
51.202661
 30
0.0
 10
250.875316
 20
51.515268
 30
0.0
  0
SPLINE
  5
154
100
AcDbEntity
  8
0
 62
7
100
AcDbSpline
 70
8
 71
3
 72
8
 73
4
 74
0
 40
0
 40
0
 40
0
 40
0
 40
1
 40
1
 40
1
 40
1
 10
250.875316
 20
51.515268
 30
0.0
 10
250.333864
 20
51.827876
 30
0.0
 10
249.666767
 20
51.827876
 30
0.0
 10
249.125315
 20
51.515268
 30
0.0
  0
SPLINE
  5
155
100
AcDbEntity
  8
0
 62
7
100
AcDbSpline
 70
8
 71
3
 72
8
 73
4
 74
0
 40
0
 40
0
 40
0
 40
0
 40
1
 40
1
 40
1
 40
1
 10
249.125315
 20
51.515268
 30
0.0
 10
248.583863
 20
51.202661
 30
0.0
 10
248.250315
 20
50.624938
 30
0.0
 10
248.250315
 20
49.999723
 30
0.0
  0
SPLINE
  5
156
100
AcDbEntity
  8
0
 62
7
100
AcDbSpline
 70
8
 71
3
 72
8
 73
4
 74
0
 40
0
 40
0
 40
0
 40
0
 40
1
 40
1
 40
1
 40
1
 10
248.250315
 20
49.999723
 30
0.0
 10
248.250315
 20
49.374508
 30
0.0
 10
248.583863
 20
48.796786
 30
0.0
 10
249.125315
 20
48.484178
 30
0.0
  0
SPLINE
  5
157
100
AcDbEntity
  8
0
 62
7
100
AcDbSpline
 70
8
 71
3
 72
8
 73
4
 74
0
 40
0
 40
0
 40
0
 40
0
 40
1
 40
1
 40
1
 40
1
 10
249.125315
 20
48.484178
 30
0.0
 10
249.666767
 20
48.171571
 30
0.0
 10
250.333864
 20
48.171571
 30
0.0
 10
250.875316
 20
48.484178
 30
0.0
  0
SPLINE
  5
158
100
AcDbEntity
  8
0
 62
7
100
AcDbSpline
 70
8
 71
3
 72
8
 73
4
 74
0
 40
0
 40
0
 40
0
 40
0
 40
1
 40
1
 40
1
 40
1
 10
250.875316
 20
48.484178
 30
0.0
 10
251.416768
 20
48.796786
 30
0.0
 10
251.750316
 20
49.374508
 30
0.0
 10
251.750316
 20
49.999723
 30
0.0
  0
LWPOLYLINE
  5
159
100
AcDbEntity
  8
0
 62
7
100
AcDbPolyline
 90
1
 70
1
 10
231.750312
 20
149.999714
 30
0.0
  0
SPLINE
  5
15a
100
AcDbEntity
  8
0
 62
7
100
AcDbSpline
 70
8
 71
3
 72
8
 73
4
 74
0
 40
0
 40
0
 40
0
 40
0
 40
1
 40
1
 40
1
 40
1
 10
291.750318
 20
69.999711
 30
0.0
 10
291.747746
 20
70.964384
 30
0.0
 10
290.965001
 20
71.745046
 30
0.0
 10
290.000324
 20
71.745046
 30
0.0
  0
SPLINE
  5
15b
100
AcDbEntity
  8
0
 62
7
100
AcDbSpline
 70
8
 71
3
 72
8
 73
4
 74
0
 40
0
 40
0
 40
0
 40
0
 40
1
 40
1
 40
1
 40
1
 10
290.000324
 20
71.745046
 30
0.0
 10
289.035647
 20
71.745046
 30
0.0
 10
288.252901
 20
70.964384
 30
0.0
 10
288.250330
 20
69.999711
 30
0.0
  0
SPLINE
  5
15c
100
AcDbEntity
  8
0
 62
7
100
AcDbSpline
 70
8
 71
3
 72
8
 73
4
 74
0
 40
0
 40
0
 40
0
 40
0
 40
1
 40
1
 40
1
 40
1
 10
288.250330
 20
69.999711
 30
0.0
 10
288.252901
 20
69.035037
 30
0.0
 10
289.035647
 20
68.254376
 30
0.0
 10
290.000324
 20
68.254376
 30
0.0
  0
SPLINE
  5
15d
100
AcDbEntity
  8
0
 62
7
100
AcDbSpline
 70
8
 71
3
 72
8
 73
4
 74
0
 40
0
 40
0
 40
0
 40
0
 40
1
 40
1
 40
1
 40
1
 10
290.000324
 20
68.254376
 30
0.0
 10
290.965001
 20
68.254376
 30
0.0
 10
291.747746
 20
69.035037
 30
0.0
 10
291.750318
 20
69.999711
 30
0.0
  0
LWPOLYLINE
  5
15e
100
AcDbEntity
  8
0
 62
7
100
AcDbPolyline
 90
1
 70
1
 10
251.750316
 20
49.999723
 30
0.0
  0
SPLINE
  5
15f
100
AcDbEntity
  8
0
 62
7
100
AcDbSpline
 70
8
 71
3
 72
8
 73
4
 74
0
 40
0
 40
0
 40
0
 40
0
 40
1
 40
1
 40
1
 40
1
 10
211.750311
 20
49.999723
 30
0.0
 10
211.749318
 20
50.965518
 30
0.0
 10
210.966108
 20
51.747923
 30
0.0
 10
210.000312
 20
51.747923
 30
0.0
  0
SPLINE
  5
160
100
AcDbEntity
  8
0
 62
7
100
AcDbSpline
 70
8
 71
3
 72
8
 73
4
 74
0
 40
0
 40
0
 40
0
 40
0
 40
1
 40
1
 40
1
 40
1
 10
210.000312
 20
51.747923
 30
0.0
 10
209.034517
 20
51.747923
 30
0.0
 10
208.251307
 20
50.965518
 30
0.0
 10
208.250313
 20
49.999723
 30
0.0
  0
SPLINE
  5
161
100
AcDbEntity
  8
0
 62
7
100
AcDbSpline
 70
8
 71
3
 72
8
 73
4
 74
0
 40
0
 40
0
 40
0
 40
0
 40
1
 40
1
 40
1
 40
1
 10
208.250313
 20
49.999723
 30
0.0
 10
208.251307
 20
49.033928
 30
0.0
 10
209.034517
 20
48.251523
 30
0.0
 10
210.000312
 20
48.251523
 30
0.0
  0
SPLINE
  5
162
100
AcDbEntity
  8
0
 62
7
100
AcDbSpline
 70
8
 71
3
 72
8
 73
4
 74
0
 40
0
 40
0
 40
0
 40
0
 40
1
 40
1
 40
1
 40
1
 10
210.000312
 20
48.251523
 30
0.0
 10
210.966108
 20
48.251523
 30
0.0
 10
211.749318
 20
49.033928
 30
0.0
 10
211.750311
 20
49.999723
 30
0.0
  0
LWPOLYLINE
  5
163
100
AcDbEntity
  8
0
 62
7
100
AcDbPolyline
 90
1
 70
1
 10
291.750318
 20
69.999711
 30
0.0
  0
SPLINE
  5
164
100
AcDbEntity
  8
0
 62
7
100
AcDbSpline
 70
8
 71
3
 72
8
 73
4
 74
0
 40
0
 40
0
 40
0
 40
0
 40
1
 40
1
 40
1
 40
1
 10
291.750318
 20
189.999715
 30
0.0
 10
291.747746
 20
190.964389
 30
0.0
 10
290.965001
 20
191.745050
 30
0.0
 10
290.000324
 20
191.745050
 30
0.0
  0
SPLINE
  5
165
100
AcDbEntity
  8
0
 62
7
100
AcDbSpline
 70
8
 71
3
 72
8
 73
4
 74
0
 40
0
 40
0
 40
0
 40
0
 40
1
 40
1
 40
1
 40
1
 10
290.000324
 20
191.745050
 30
0.0
 10
289.035647
 20
191.745050
 30
0.0
 10
288.252901
 20
190.964389
 30
0.0
 10
288.250330
 20
189.999715
 30
0.0
  0
SPLINE
  5
166
100
AcDbEntity
  8
0
 62
7
100
AcDbSpline
 70
8
 71
3
 72
8
 73
4
 74
0
 40
0
 40
0
 40
0
 40
0
 40
1
 40
1
 40
1
 40
1
 10
288.250330
 20
189.999715
 30
0.0
 10
288.252901
 20
189.035042
 30
0.0
 10
289.035647
 20
188.254380
 30
0.0
 10
290.000324
 20
188.254380
 30
0.0
  0
SPLINE
  5
167
100
AcDbEntity
  8
0
 62
7
100
AcDbSpline
 70
8
 71
3
 72
8
 73
4
 74
0
 40
0
 40
0
 40
0
 40
0
 40
1
 40
1
 40
1
 40
1
 10
290.000324
 20
188.254380
 30
0.0
 10
290.965001
 20
188.254380
 30
0.0
 10
291.747746
 20
189.035042
 30
0.0
 10
291.750318
 20
189.999715
 30
0.0
  0
LWPOLYLINE
  5
168
100
AcDbEntity
  8
0
 62
7
100
AcDbPolyline
 90
1
 70
1
 10
211.750311
 20
49.999723
 30
0.0
  0
SPLINE
  5
169
100
AcDbEntity
  8
0
 62
7
100
AcDbSpline
 70
8
 71
3
 72
8
 73
4
 74
0
 40
0
 40
0
 40
0
 40
0
 40
1
 40
1
 40
1
 40
1
 10
71.750305
 20
109.999712
 30
0.0
 10
71.750305
 20
110.966211
 30
0.0
 10
70.966803
 20
111.749713
 30
0.0
 10
70.000305
 20
111.749713
 30
0.0
  0
SPLINE
  5
16a
100
AcDbEntity
  8
0
 62
7
100
AcDbSpline
 70
8
 71
3
 72
8
 73
4
 74
0
 40
0
 40
0
 40
0
 40
0
 40
1
 40
1
 40
1
 40
1
 10
70.000305
 20
111.749713
 30
0.0
 10
69.033806
 20
111.749713
 30
0.0
 10
68.250304
 20
110.966211
 30
0.0
 10
68.250304
 20
109.999712
 30
0.0
  0
SPLINE
  5
16b
100
AcDbEntity
  8
0
 62
7
100
AcDbSpline
 70
8
 71
3
 72
8
 73
4
 74
0
 40
0
 40
0
 40
0
 40
0
 40
1
 40
1
 40
1
 40
1
 10
68.250304
 20
109.999712
 30
0.0
 10
68.250304
 20
109.033214
 30
0.0
 10
69.033806
 20
108.249712
 30
0.0
 10
70.000305
 20
108.249712
 30
0.0
  0
SPLINE
  5
16c
100
AcDbEntity
  8
0
 62
7
100
AcDbSpline
 70
8
 71
3
 72
8
 73
4
 74
0
 40
0
 40
0
 40
0
 40
0
 40
1
 40
1
 40
1
 40
1
 10
70.000305
 20
108.249712
 30
0.0
 10
70.966803
 20
108.249712
 30
0.0
 10
71.750305
 20
109.033214
 30
0.0
 10
71.750305
 20
109.999712
 30
0.0
  0
LWPOLYLINE
  5
16d
100
AcDbEntity
  8
0
 62
7
100
AcDbPolyline
 90
1
 70
1
 10
291.750318
 20
189.999715
 30
0.0
  0
SPLINE
  5
16e
100
AcDbEntity
  8
0
 62
7
100
AcDbSpline
 70
8
 71
3
 72
8
 73
4
 74
0
 40
0
 40
0
 40
0
 40
0
 40
1
 40
1
 40
1
 40
1
 10
11.750306
 20
129.999727
 30
0.0
 10
11.750306
 20
130.624944
 30
0.0
 10
11.416756
 20
131.202669
 30
0.0
 10
10.875302
 20
131.515277
 30
0.0
  0
SPLINE
  5
16f
100
AcDbEntity
  8
0
 62
7
100
AcDbSpline
 70
8
 71
3
 72
8
 73
4
 74
0
 40
0
 40
0
 40
0
 40
0
 40
1
 40
1
 40
1
 40
1
 10
10.875302
 20
131.515277
 30
0.0
 10
10.333848
 20
131.827886
 30
0.0
 10
9.666749
 20
131.827886
 30
0.0
 10
9.125295
 20
131.515277
 30
0.0
  0
SPLINE
  5
170
100
AcDbEntity
  8
0
 62
7
100
AcDbSpline
 70
8
 71
3
 72
8
 73
4
 74
0
 40
0
 40
0
 40
0
 40
0
 40
1
 40
1
 40
1
 40
1
 10
9.125295
 20
131.515277
 30
0.0
 10
8.583841
 20
131.202669
 30
0.0
 10
8.250291
 20
130.624944
 30
0.0
 10
8.250291
 20
129.999727
 30
0.0
  0
SPLINE
  5
171
100
AcDbEntity
  8
0
 62
7
100
AcDbSpline
 70
8
 71
3
 72
8
 73
4
 74
0
 40
0
 40
0
 40
0
 40
0
 40
1
 40
1
 40
1
 40
1
 10
8.250291
 20
129.999727
 30
0.0
 10
8.250291
 20
129.374509
 30
0.0
 10
8.583841
 20
128.796785
 30
0.0
 10
9.125295
 20
128.484176
 30
0.0
  0
SPLINE
  5
172
100
AcDbEntity
  8
0
 62
7
100
AcDbSpline
 70
8
 71
3
 72
8
 73
4
 74
0
 40
0
 40
0
 40
0
 40
0
 40
1
 40
1
 40
1
 40
1
 10
9.125295
 20
128.484176
 30
0.0
 10
9.666749
 20
128.171567
 30
0.0
 10
10.333848
 20
128.171567
 30
0.0
 10
10.875302
 20
128.484176
 30
0.0
  0
SPLINE
  5
173
100
AcDbEntity
  8
0
 62
7
100
AcDbSpline
 70
8
 71
3
 72
8
 73
4
 74
0
 40
0
 40
0
 40
0
 40
0
 40
1
 40
1
 40
1
 40
1
 10
10.875302
 20
128.484176
 30
0.0
 10
11.416756
 20
128.796785
 30
0.0
 10
11.750306
 20
129.374509
 30
0.0
 10
11.750306
 20
129.999727
 30
0.0
  0
LWPOLYLINE
  5
174
100
AcDbEntity
  8
0
 62
7
100
AcDbPolyline
 90
1
 70
1
 10
71.750305
 20
109.999712
 30
0.0
  0
SPLINE
  5
175
100
AcDbEntity
  8
0
 62
7
100
AcDbSpline
 70
8
 71
3
 72
8
 73
4
 74
0
 40
0
 40
0
 40
0
 40
0
 40
1
 40
1
 40
1
 40
1
 10
231.750312
 20
89.999725
 30
0.0
 10
231.749392
 20
90.965572
 30
0.0
 10
230.966161
 20
91.748058
 30
0.0
 10
230.000313
 20
91.748058
 30
0.0
  0
SPLINE
  5
176
100
AcDbEntity
  8
0
 62
7
100
AcDbSpline
 70
8
 71
3
 72
8
 73
4
 74
0
 40
0
 40
0
 40
0
 40
0
 40
1
 40
1
 40
1
 40
1
 10
230.000313
 20
91.748058
 30
0.0
 10
229.034466
 20
91.748058
 30
0.0
 10
228.251234
 20
90.965572
 30
0.0
 10
228.250314
 20
89.999725
 30
0.0
  0
SPLINE
  5
177
100
AcDbEntity
  8
0
 62
7
100
AcDbSpline
 70
8
 71
3
 72
8
 73
4
 74
0
 40
0
 40
0
 40
0
 40
0
 40
1
 40
1
 40
1
 40
1
 10
228.250314
 20
89.999725
 30
0.0
 10
228.251234
 20
89.033878
 30
0.0
 10
229.034466
 20
88.251392
 30
0.0
 10
230.000313
 20
88.251392
 30
0.0
  0
SPLINE
  5
178
100
AcDbEntity
  8
0
 62
7
100
AcDbSpline
 70
8
 71
3
 72
8
 73
4
 74
0
 40
0
 40
0
 40
0
 40
0
 40
1
 40
1
 40
1
 40
1
 10
230.000313
 20
88.251392
 30
0.0
 10
230.966161
 20
88.251392
 30
0.0
 10
231.749392
 20
89.033878
 30
0.0
 10
231.750312
 20
89.999725
 30
0.0
  0
LWPOLYLINE
  5
179
100
AcDbEntity
  8
0
 62
7
100
AcDbPolyline
 90
1
 70
1
 10
11.750306
 20
129.999727
 30
0.0
  0
SPLINE
  5
17a
100
AcDbEntity
  8
0
 62
7
100
AcDbSpline
 70
8
 71
3
 72
8
 73
4
 74
0
 40
0
 40
0
 40
0
 40
0
 40
1
 40
1
 40
1
 40
1
 10
151.750309
 20
69.999711
 30
0.0
 10
151.750309
 20
70.966209
 30
0.0
 10
150.966807
 20
71.749711
 30
0.0
 10
150.000308
 20
71.749711
 30
0.0
  0
SPLINE
  5
17b
100
AcDbEntity
  8
0
 62
7
100
AcDbSpline
 70
8
 71
3
 72
8
 73
4
 74
0
 40
0
 40
0
 40
0
 40
0
 40
1
 40
1
 40
1
 40
1
 10
150.000308
 20
71.749711
 30
0.0
 10
149.033810
 20
71.749711
 30
0.0
 10
148.250308
 20
70.966209
 30
0.0
 10
148.250308
 20
69.999711
 30
0.0
  0
SPLINE
  5
17c
100
AcDbEntity
  8
0
 62
7
100
AcDbSpline
 70
8
 71
3
 72
8
 73
4
 74
0
 40
0
 40
0
 40
0
 40
0
 40
1
 40
1
 40
1
 40
1
 10
148.250308
 20
69.999711
 30
0.0
 10
148.250308
 20
69.033212
 30
0.0
 10
149.033810
 20
68.249710
 30
0.0
 10
150.000308
 20
68.249710
 30
0.0
  0
SPLINE
  5
17d
100
AcDbEntity
  8
0
 62
7
100
AcDbSpline
 70
8
 71
3
 72
8
 73
4
 74
0
 40
0
 40
0
 40
0
 40
0
 40
1
 40
1
 40
1
 40
1
 10
150.000308
 20
68.249710
 30
0.0
 10
150.966807
 20
68.249710
 30
0.0
 10
151.750309
 20
69.033212
 30
0.0
 10
151.750309
 20
69.999711
 30
0.0
  0
LWPOLYLINE
  5
17e
100
AcDbEntity
  8
0
 62
7
100
AcDbPolyline
 90
1
 70
1
 10
231.750312
 20
89.999725
 30
0.0
  0
SPLINE
  5
17f
100
AcDbEntity
  8
0
 62
7
100
AcDbSpline
 70
8
 71
3
 72
8
 73
4
 74
0
 40
0
 40
0
 40
0
 40
0
 40
1
 40
1
 40
1
 40
1
 10
11.750306
 20
9.999721
 30
0.0
 10
11.750306
 20
10.624939
 30
0.0
 10
11.416756
 20
11.202663
 30
0.0
 10
10.875302
 20
11.515272
 30
0.0
  0
SPLINE
  5
180
100
AcDbEntity
  8
0
 62
7
100
AcDbSpline
 70
8
 71
3
 72
8
 73
4
 74
0
 40
0
 40
0
 40
0
 40
0
 40
1
 40
1
 40
1
 40
1
 10
10.875302
 20
11.515272
 30
0.0
 10
10.333848
 20
11.827881
 30
0.0
 10
9.666749
 20
11.827881
 30
0.0
 10
9.125295
 20
11.515272
 30
0.0
  0
SPLINE
  5
181
100
AcDbEntity
  8
0
 62
7
100
AcDbSpline
 70
8
 71
3
 72
8
 73
4
 74
0
 40
0
 40
0
 40
0
 40
0
 40
1
 40
1
 40
1
 40
1
 10
9.125295
 20
11.515272
 30
0.0
 10
8.583841
 20
11.202663
 30
0.0
 10
8.250291
 20
10.624939
 30
0.0
 10
8.250291
 20
9.999721
 30
0.0
  0
SPLINE
  5
182
100
AcDbEntity
  8
0
 62
7
100
AcDbSpline
 70
8
 71
3
 72
8
 73
4
 74
0
 40
0
 40
0
 40
0
 40
0
 40
1
 40
1
 40
1
 40
1
 10
8.250291
 20
9.999721
 30
0.0
 10
8.250291
 20
9.374504
 30
0.0
 10
8.583841
 20
8.796779
 30
0.0
 10
9.125295
 20
8.484171
 30
0.0
  0
SPLINE
  5
183
100
AcDbEntity
  8
0
 62
7
100
AcDbSpline
 70
8
 71
3
 72
8
 73
4
 74
0
 40
0
 40
0
 40
0
 40
0
 40
1
 40
1
 40
1
 40
1
 10
9.125295
 20
8.484171
 30
0.0
 10
9.666749
 20
8.171562
 30
0.0
 10
10.333848
 20
8.171562
 30
0.0
 10
10.875302
 20
8.484171
 30
0.0
  0
SPLINE
  5
184
100
AcDbEntity
  8
0
 62
7
100
AcDbSpline
 70
8
 71
3
 72
8
 73
4
 74
0
 40
0
 40
0
 40
0
 40
0
 40
1
 40
1
 40
1
 40
1
 10
10.875302
 20
8.484171
 30
0.0
 10
11.416756
 20
8.796779
 30
0.0
 10
11.750306
 20
9.374504
 30
0.0
 10
11.750306
 20
9.999721
 30
0.0
  0
LWPOLYLINE
  5
185
100
AcDbEntity
  8
0
 62
7
100
AcDbPolyline
 90
1
 70
1
 10
151.750309
 20
69.999711
 30
0.0
  0
SPLINE
  5
186
100
AcDbEntity
  8
0
 62
7
100
AcDbSpline
 70
8
 71
3
 72
8
 73
4
 74
0
 40
0
 40
0
 40
0
 40
0
 40
1
 40
1
 40
1
 40
1
 10
111.750307
 20
89.999725
 30
0.0
 10
111.750307
 20
90.966223
 30
0.0
 10
110.966805
 20
91.749725
 30
0.0
 10
110.000306
 20
91.749725
 30
0.0
  0
SPLINE
  5
187
100
AcDbEntity
  8
0
 62
7
100
AcDbSpline
 70
8
 71
3
 72
8
 73
4
 74
0
 40
0
 40
0
 40
0
 40
0
 40
1
 40
1
 40
1
 40
1
 10
110.000306
 20
91.749725
 30
0.0
 10
109.033808
 20
91.749725
 30
0.0
 10
108.250306
 20
90.966223
 30
0.0
 10
108.250306
 20
89.999725
 30
0.0
  0
SPLINE
  5
188
100
AcDbEntity
  8
0
 62
7
100
AcDbSpline
 70
8
 71
3
 72
8
 73
4
 74
0
 40
0
 40
0
 40
0
 40
0
 40
1
 40
1
 40
1
 40
1
 10
108.250306
 20
89.999725
 30
0.0
 10
108.250306
 20
89.033226
 30
0.0
 10
109.033808
 20
88.249724
 30
0.0
 10
110.000306
 20
88.249724
 30
0.0
  0
SPLINE
  5
189
100
AcDbEntity
  8
0
 62
7
100
AcDbSpline
 70
8
 71
3
 72
8
 73
4
 74
0
 40
0
 40
0
 40
0
 40
0
 40
1
 40
1
 40
1
 40
1
 10
110.000306
 20
88.249724
 30
0.0
 10
110.966805
 20
88.249724
 30
0.0
 10
111.750307
 20
89.033226
 30
0.0
 10
111.750307
 20
89.999725
 30
0.0
  0
LWPOLYLINE
  5
18a
100
AcDbEntity
  8
0
 62
7
100
AcDbPolyline
 90
1
 70
1
 10
11.750306
 20
9.999721
 30
0.0
  0
SPLINE
  5
18b
100
AcDbEntity
  8
0
 62
7
100
AcDbSpline
 70
8
 71
3
 72
8
 73
4
 74
0
 40
0
 40
0
 40
0
 40
0
 40
1
 40
1
 40
1
 40
1
 10
151.750309
 20
169.999728
 30
0.0
 10
151.750309
 20
170.966227
 30
0.0
 10
150.966807
 20
171.749729
 30
0.0
 10
150.000308
 20
171.749729
 30
0.0
  0
SPLINE
  5
18c
100
AcDbEntity
  8
0
 62
7
100
AcDbSpline
 70
8
 71
3
 72
8
 73
4
 74
0
 40
0
 40
0
 40
0
 40
0
 40
1
 40
1
 40
1
 40
1
 10
150.000308
 20
171.749729
 30
0.0
 10
149.033810
 20
171.749729
 30
0.0
 10
148.250308
 20
170.966227
 30
0.0
 10
148.250308
 20
169.999728
 30
0.0
  0
SPLINE
  5
18d
100
AcDbEntity
  8
0
 62
7
100
AcDbSpline
 70
8
 71
3
 72
8
 73
4
 74
0
 40
0
 40
0
 40
0
 40
0
 40
1
 40
1
 40
1
 40
1
 10
148.250308
 20
169.999728
 30
0.0
 10
148.250308
 20
169.033230
 30
0.0
 10
149.033810
 20
168.249728
 30
0.0
 10
150.000308
 20
168.249728
 30
0.0
  0
SPLINE
  5
18e
100
AcDbEntity
  8
0
 62
7
100
AcDbSpline
 70
8
 71
3
 72
8
 73
4
 74
0
 40
0
 40
0
 40
0
 40
0
 40
1
 40
1
 40
1
 40
1
 10
150.000308
 20
168.249728
 30
0.0
 10
150.966807
 20
168.249728
 30
0.0
 10
151.750309
 20
169.033230
 30
0.0
 10
151.750309
 20
169.999728
 30
0.0
  0
LWPOLYLINE
  5
18f
100
AcDbEntity
  8
0
 62
7
100
AcDbPolyline
 90
1
 70
1
 10
111.750307
 20
89.999725
 30
0.0
  0
SPLINE
  5
190
100
AcDbEntity
  8
0
 62
7
100
AcDbSpline
 70
8
 71
3
 72
8
 73
4
 74
0
 40
0
 40
0
 40
0
 40
0
 40
1
 40
1
 40
1
 40
1
 10
31.750293
 20
149.999714
 30
0.0
 10
31.747749
 20
150.964407
 30
0.0
 10
30.964996
 20
151.745099
 30
0.0
 10
30.000299
 20
151.745099
 30
0.0
  0
SPLINE
  5
191
100
AcDbEntity
  8
0
 62
7
100
AcDbSpline
 70
8
 71
3
 72
8
 73
4
 74
0
 40
0
 40
0
 40
0
 40
0
 40
1
 40
1
 40
1
 40
1
 10
30.000299
 20
151.745099
 30
0.0
 10
29.035602
 20
151.745099
 30
0.0
 10
28.252849
 20
150.964407
 30
0.0
 10
28.250305
 20
149.999714
 30
0.0
  0
SPLINE
  5
192
100
AcDbEntity
  8
0
 62
7
100
AcDbSpline
 70
8
 71
3
 72
8
 73
4
 74
0
 40
0
 40
0
 40
0
 40
0
 40
1
 40
1
 40
1
 40
1
 10
28.250305
 20
149.999714
 30
0.0
 10
28.252849
 20
149.035021
 30
0.0
 10
29.035602
 20
148.254329
 30
0.0
 10
30.000299
 20
148.254329
 30
0.0
  0
SPLINE
  5
193
100
AcDbEntity
  8
0
 62
7
100
AcDbSpline
 70
8
 71
3
 72
8
 73
4
 74
0
 40
0
 40
0
 40
0
 40
0
 40
1
 40
1
 40
1
 40
1
 10
30.000299
 20
148.254329
 30
0.0
 10
30.964996
 20
148.254329
 30
0.0
 10
31.747749
 20
149.035021
 30
0.0
 10
31.750293
 20
149.999714
 30
0.0
  0
LWPOLYLINE
  5
194
100
AcDbEntity
  8
0
 62
7
100
AcDbPolyline
 90
1
 70
1
 10
151.750309
 20
169.999728
 30
0.0
  0
SPLINE
  5
195
100
AcDbEntity
  8
0
 62
7
100
AcDbSpline
 70
8
 71
3
 72
8
 73
4
 74
0
 40
0
 40
0
 40
0
 40
0
 40
1
 40
1
 40
1
 40
1
 10
31.750293
 20
129.999727
 30
0.0
 10
31.747749
 20
130.964420
 30
0.0
 10
30.964996
 20
131.745112
 30
0.0
 10
30.000299
 20
131.745112
 30
0.0
  0
SPLINE
  5
196
100
AcDbEntity
  8
0
 62
7
100
AcDbSpline
 70
8
 71
3
 72
8
 73
4
 74
0
 40
0
 40
0
 40
0
 40
0
 40
1
 40
1
 40
1
 40
1
 10
30.000299
 20
131.745112
 30
0.0
 10
29.035602
 20
131.745112
 30
0.0
 10
28.252849
 20
130.964420
 30
0.0
 10
28.250305
 20
129.999727
 30
0.0
  0
SPLINE
  5
197
100
AcDbEntity
  8
0
 62
7
100
AcDbSpline
 70
8
 71
3
 72
8
 73
4
 74
0
 40
0
 40
0
 40
0
 40
0
 40
1
 40
1
 40
1
 40
1
 10
28.250305
 20
129.999727
 30
0.0
 10
28.252849
 20
129.035033
 30
0.0
 10
29.035602
 20
128.254342
 30
0.0
 10
30.000299
 20
128.254342
 30
0.0
  0
SPLINE
  5
198
100
AcDbEntity
  8
0
 62
7
100
AcDbSpline
 70
8
 71
3
 72
8
 73
4
 74
0
 40
0
 40
0
 40
0
 40
0
 40
1
 40
1
 40
1
 40
1
 10
30.000299
 20
128.254342
 30
0.0
 10
30.964996
 20
128.254342
 30
0.0
 10
31.747749
 20
129.035033
 30
0.0
 10
31.750293
 20
129.999727
 30
0.0
  0
LWPOLYLINE
  5
199
100
AcDbEntity
  8
0
 62
7
100
AcDbPolyline
 90
1
 70
1
 10
31.750293
 20
149.999714
 30
0.0
  0
SPLINE
  5
19a
100
AcDbEntity
  8
0
 62
7
100
AcDbSpline
 70
8
 71
3
 72
8
 73
4
 74
0
 40
0
 40
0
 40
0
 40
0
 40
1
 40
1
 40
1
 40
1
 10
11.750306
 20
149.999714
 30
0.0
 10
11.750306
 20
150.624932
 30
0.0
 10
11.416756
 20
151.202656
 30
0.0
 10
10.875302
 20
151.515265
 30
0.0
  0
SPLINE
  5
19b
100
AcDbEntity
  8
0
 62
7
100
AcDbSpline
 70
8
 71
3
 72
8
 73
4
 74
0
 40
0
 40
0
 40
0
 40
0
 40
1
 40
1
 40
1
 40
1
 10
10.875302
 20
151.515265
 30
0.0
 10
10.333848
 20
151.827874
 30
0.0
 10
9.666749
 20
151.827874
 30
0.0
 10
9.125295
 20
151.515265
 30
0.0
  0
SPLINE
  5
19c
100
AcDbEntity
  8
0
 62
7
100
AcDbSpline
 70
8
 71
3
 72
8
 73
4
 74
0
 40
0
 40
0
 40
0
 40
0
 40
1
 40
1
 40
1
 40
1
 10
9.125295
 20
151.515265
 30
0.0
 10
8.583841
 20
151.202656
 30
0.0
 10
8.250291
 20
150.624932
 30
0.0
 10
8.250291
 20
149.999714
 30
0.0
  0
SPLINE
  5
19d
100
AcDbEntity
  8
0
 62
7
100
AcDbSpline
 70
8
 71
3
 72
8
 73
4
 74
0
 40
0
 40
0
 40
0
 40
0
 40
1
 40
1
 40
1
 40
1
 10
8.250291
 20
149.999714
 30
0.0
 10
8.250291
 20
149.374497
 30
0.0
 10
8.583841
 20
148.796772
 30
0.0
 10
9.125295
 20
148.484164
 30
0.0
  0
SPLINE
  5
19e
100
AcDbEntity
  8
0
 62
7
100
AcDbSpline
 70
8
 71
3
 72
8
 73
4
 74
0
 40
0
 40
0
 40
0
 40
0
 40
1
 40
1
 40
1
 40
1
 10
9.125295
 20
148.484164
 30
0.0
 10
9.666749
 20
148.171555
 30
0.0
 10
10.333848
 20
148.171555
 30
0.0
 10
10.875302
 20
148.484164
 30
0.0
  0
SPLINE
  5
19f
100
AcDbEntity
  8
0
 62
7
100
AcDbSpline
 70
8
 71
3
 72
8
 73
4
 74
0
 40
0
 40
0
 40
0
 40
0
 40
1
 40
1
 40
1
 40
1
 10
10.875302
 20
148.484164
 30
0.0
 10
11.416756
 20
148.796772
 30
0.0
 10
11.750306
 20
149.374497
 30
0.0
 10
11.750306
 20
149.999714
 30
0.0
  0
LWPOLYLINE
  5
1a0
100
AcDbEntity
  8
0
 62
7
100
AcDbPolyline
 90
1
 70
1
 10
31.750293
 20
129.999727
 30
0.0
  0
SPLINE
  5
1a1
100
AcDbEntity
  8
0
 62
7
100
AcDbSpline
 70
8
 71
3
 72
8
 73
4
 74
0
 40
0
 40
0
 40
0
 40
0
 40
1
 40
1
 40
1
 40
1
 10
131.750308
 20
169.999728
 30
0.0
 10
131.750308
 20
170.624943
 30
0.0
 10
131.416760
 20
171.202666
 30
0.0
 10
130.875308
 20
171.515273
 30
0.0
  0
SPLINE
  5
1a2
100
AcDbEntity
  8
0
 62
7
100
AcDbSpline
 70
8
 71
3
 72
8
 73
4
 74
0
 40
0
 40
0
 40
0
 40
0
 40
1
 40
1
 40
1
 40
1
 10
130.875308
 20
171.515273
 30
0.0
 10
130.333856
 20
171.827881
 30
0.0
 10
129.666759
 20
171.827881
 30
0.0
 10
129.125307
 20
171.515273
 30
0.0
  0
SPLINE
  5
1a3
100
AcDbEntity
  8
0
 62
7
100
AcDbSpline
 70
8
 71
3
 72
8
 73
4
 74
0
 40
0
 40
0
 40
0
 40
0
 40
1
 40
1
 40
1
 40
1
 10
129.125307
 20
171.515273
 30
0.0
 10
128.583855
 20
171.202666
 30
0.0
 10
128.250307
 20
170.624943
 30
0.0
 10
128.250307
 20
169.999728
 30
0.0
  0
SPLINE
  5
1a4
100
AcDbEntity
  8
0
 62
7
100
AcDbSpline
 70
8
 71
3
 72
8
 73
4
 74
0
 40
0
 40
0
 40
0
 40
0
 40
1
 40
1
 40
1
 40
1
 10
128.250307
 20
169.999728
 30
0.0
 10
128.250307
 20
169.374513
 30
0.0
 10
128.583855
 20
168.796791
 30
0.0
 10
129.125307
 20
168.484183
 30
0.0
  0
SPLINE
  5
1a5
100
AcDbEntity
  8
0
 62
7
100
AcDbSpline
 70
8
 71
3
 72
8
 73
4
 74
0
 40
0
 40
0
 40
0
 40
0
 40
1
 40
1
 40
1
 40
1
 10
129.125307
 20
168.484183
 30
0.0
 10
129.666759
 20
168.171576
 30
0.0
 10
130.333856
 20
168.171576
 30
0.0
 10
130.875308
 20
168.484183
 30
0.0
  0
SPLINE
  5
1a6
100
AcDbEntity
  8
0
 62
7
100
AcDbSpline
 70
8
 71
3
 72
8
 73
4
 74
0
 40
0
 40
0
 40
0
 40
0
 40
1
 40
1
 40
1
 40
1
 10
130.875308
 20
168.484183
 30
0.0
 10
131.416760
 20
168.796791
 30
0.0
 10
131.750308
 20
169.374513
 30
0.0
 10
131.750308
 20
169.999728
 30
0.0
  0
LWPOLYLINE
  5
1a7
100
AcDbEntity
  8
0
 62
7
100
AcDbPolyline
 90
1
 70
1
 10
11.750306
 20
149.999714
 30
0.0
  0
SPLINE
  5
1a8
100
AcDbEntity
  8
0
 62
7
100
AcDbSpline
 70
8
 71
3
 72
8
 73
4
 74
0
 40
0
 40
0
 40
0
 40
0
 40
1
 40
1
 40
1
 40
1
 10
151.750309
 20
189.999715
 30
0.0
 10
151.750309
 20
190.966214
 30
0.0
 10
150.966807
 20
191.749716
 30
0.0
 10
150.000308
 20
191.749716
 30
0.0
  0
SPLINE
  5
1a9
100
AcDbEntity
  8
0
 62
7
100
AcDbSpline
 70
8
 71
3
 72
8
 73
4
 74
0
 40
0
 40
0
 40
0
 40
0
 40
1
 40
1
 40
1
 40
1
 10
150.000308
 20
191.749716
 30
0.0
 10
149.033810
 20
191.749716
 30
0.0
 10
148.250308
 20
190.966214
 30
0.0
 10
148.250308
 20
189.999715
 30
0.0
  0
SPLINE
  5
1aa
100
AcDbEntity
  8
0
 62
7
100
AcDbSpline
 70
8
 71
3
 72
8
 73
4
 74
0
 40
0
 40
0
 40
0
 40
0
 40
1
 40
1
 40
1
 40
1
 10
148.250308
 20
189.999715
 30
0.0
 10
148.250308
 20
189.033217
 30
0.0
 10
149.033810
 20
188.249715
 30
0.0
 10
150.000308
 20
188.249715
 30
0.0
  0
SPLINE
  5
1ab
100
AcDbEntity
  8
0
 62
7
100
AcDbSpline
 70
8
 71
3
 72
8
 73
4
 74
0
 40
0
 40
0
 40
0
 40
0
 40
1
 40
1
 40
1
 40
1
 10
150.000308
 20
188.249715
 30
0.0
 10
150.966807
 20
188.249715
 30
0.0
 10
151.750309
 20
189.033217
 30
0.0
 10
151.750309
 20
189.999715
 30
0.0
  0
LWPOLYLINE
  5
1ac
100
AcDbEntity
  8
0
 62
7
100
AcDbPolyline
 90
1
 70
1
 10
131.750308
 20
169.999728
 30
0.0
  0
SPLINE
  5
1ad
100
AcDbEntity
  8
0
 62
7
100
AcDbSpline
 70
8
 71
3
 72
8
 73
4
 74
0
 40
0
 40
0
 40
0
 40
0
 40
1
 40
1
 40
1
 40
1
 10
91.750306
 20
89.999725
 30
0.0
 10
91.750306
 20
90.624940
 30
0.0
 10
91.416758
 20
91.202662
 30
0.0
 10
90.875306
 20
91.515270
 30
0.0
  0
SPLINE
  5
1ae
100
AcDbEntity
  8
0
 62
7
100
AcDbSpline
 70
8
 71
3
 72
8
 73
4
 74
0
 40
0
 40
0
 40
0
 40
0
 40
1
 40
1
 40
1
 40
1
 10
90.875306
 20
91.515270
 30
0.0
 10
90.333854
 20
91.827877
 30
0.0
 10
89.666757
 20
91.827877
 30
0.0
 10
89.125305
 20
91.515270
 30
0.0
  0
SPLINE
  5
1af
100
AcDbEntity
  8
0
 62
7
100
AcDbSpline
 70
8
 71
3
 72
8
 73
4
 74
0
 40
0
 40
0
 40
0
 40
0
 40
1
 40
1
 40
1
 40
1
 10
89.125305
 20
91.515270
 30
0.0
 10
88.583853
 20
91.202662
 30
0.0
 10
88.250305
 20
90.624940
 30
0.0
 10
88.250305
 20
89.999725
 30
0.0
  0
SPLINE
  5
1b0
100
AcDbEntity
  8
0
 62
7
100
AcDbSpline
 70
8
 71
3
 72
8
 73
4
 74
0
 40
0
 40
0
 40
0
 40
0
 40
1
 40
1
 40
1
 40
1
 10
88.250305
 20
89.999725
 30
0.0
 10
88.250305
 20
89.374510
 30
0.0
 10
88.583853
 20
88.796787
 30
0.0
 10
89.125305
 20
88.484180
 30
0.0
  0
SPLINE
  5
1b1
100
AcDbEntity
  8
0
 62
7
100
AcDbSpline
 70
8
 71
3
 72
8
 73
4
 74
0
 40
0
 40
0
 40
0
 40
0
 40
1
 40
1
 40
1
 40
1
 10
89.125305
 20
88.484180
 30
0.0
 10
89.666757
 20
88.171572
 30
0.0
 10
90.333854
 20
88.171572
 30
0.0
 10
90.875306
 20
88.484180
 30
0.0
  0
SPLINE
  5
1b2
100
AcDbEntity
  8
0
 62
7
100
AcDbSpline
 70
8
 71
3
 72
8
 73
4
 74
0
 40
0
 40
0
 40
0
 40
0
 40
1
 40
1
 40
1
 40
1
 10
90.875306
 20
88.484180
 30
0.0
 10
91.416758
 20
88.796787
 30
0.0
 10
91.750306
 20
89.374510
 30
0.0
 10
91.750306
 20
89.999725
 30
0.0
  0
LWPOLYLINE
  5
1b3
100
AcDbEntity
  8
0
 62
7
100
AcDbPolyline
 90
1
 70
1
 10
151.750309
 20
189.999715
 30
0.0
  0
SPLINE
  5
1b4
100
AcDbEntity
  8
0
 62
7
100
AcDbSpline
 70
8
 71
3
 72
8
 73
4
 74
0
 40
0
 40
0
 40
0
 40
0
 40
1
 40
1
 40
1
 40
1
 10
131.750308
 20
89.999725
 30
0.0
 10
131.750308
 20
90.624940
 30
0.0
 10
131.416760
 20
91.202662
 30
0.0
 10
130.875308
 20
91.515270
 30
0.0
  0
SPLINE
  5
1b5
100
AcDbEntity
  8
0
 62
7
100
AcDbSpline
 70
8
 71
3
 72
8
 73
4
 74
0
 40
0
 40
0
 40
0
 40
0
 40
1
 40
1
 40
1
 40
1
 10
130.875308
 20
91.515270
 30
0.0
 10
130.333856
 20
91.827877
 30
0.0
 10
129.666759
 20
91.827877
 30
0.0
 10
129.125307
 20
91.515270
 30
0.0
  0
SPLINE
  5
1b6
100
AcDbEntity
  8
0
 62
7
100
AcDbSpline
 70
8
 71
3
 72
8
 73
4
 74
0
 40
0
 40
0
 40
0
 40
0
 40
1
 40
1
 40
1
 40
1
 10
129.125307
 20
91.515270
 30
0.0
 10
128.583855
 20
91.202662
 30
0.0
 10
128.250307
 20
90.624940
 30
0.0
 10
128.250307
 20
89.999725
 30
0.0
  0
SPLINE
  5
1b7
100
AcDbEntity
  8
0
 62
7
100
AcDbSpline
 70
8
 71
3
 72
8
 73
4
 74
0
 40
0
 40
0
 40
0
 40
0
 40
1
 40
1
 40
1
 40
1
 10
128.250307
 20
89.999725
 30
0.0
 10
128.250307
 20
89.374510
 30
0.0
 10
128.583855
 20
88.796787
 30
0.0
 10
129.125307
 20
88.484180
 30
0.0
  0
SPLINE
  5
1b8
100
AcDbEntity
  8
0
 62
7
100
AcDbSpline
 70
8
 71
3
 72
8
 73
4
 74
0
 40
0
 40
0
 40
0
 40
0
 40
1
 40
1
 40
1
 40
1
 10
129.125307
 20
88.484180
 30
0.0
 10
129.666759
 20
88.171572
 30
0.0
 10
130.333856
 20
88.171572
 30
0.0
 10
130.875308
 20
88.484180
 30
0.0
  0
SPLINE
  5
1b9
100
AcDbEntity
  8
0
 62
7
100
AcDbSpline
 70
8
 71
3
 72
8
 73
4
 74
0
 40
0
 40
0
 40
0
 40
0
 40
1
 40
1
 40
1
 40
1
 10
130.875308
 20
88.484180
 30
0.0
 10
131.416760
 20
88.796787
 30
0.0
 10
131.750308
 20
89.374510
 30
0.0
 10
131.750308
 20
89.999725
 30
0.0
  0
LWPOLYLINE
  5
1ba
100
AcDbEntity
  8
0
 62
7
100
AcDbPolyline
 90
1
 70
1
 10
91.750306
 20
89.999725
 30
0.0
  0
SPLINE
  5
1bb
100
AcDbEntity
  8
0
 62
7
100
AcDbSpline
 70
8
 71
3
 72
8
 73
4
 74
0
 40
0
 40
0
 40
0
 40
0
 40
1
 40
1
 40
1
 40
1
 10
211.750311
 20
89.999725
 30
0.0
 10
211.749318
 20
90.965520
 30
0.0
 10
210.966108
 20
91.747925
 30
0.0
 10
210.000312
 20
91.747925
 30
0.0
  0
SPLINE
  5
1bc
100
AcDbEntity
  8
0
 62
7
100
AcDbSpline
 70
8
 71
3
 72
8
 73
4
 74
0
 40
0
 40
0
 40
0
 40
0
 40
1
 40
1
 40
1
 40
1
 10
210.000312
 20
91.747925
 30
0.0
 10
209.034517
 20
91.747925
 30
0.0
 10
208.251307
 20
90.965520
 30
0.0
 10
208.250313
 20
89.999725
 30
0.0
  0
SPLINE
  5
1bd
100
AcDbEntity
  8
0
 62
7
100
AcDbSpline
 70
8
 71
3
 72
8
 73
4
 74
0
 40
0
 40
0
 40
0
 40
0
 40
1
 40
1
 40
1
 40
1
 10
208.250313
 20
89.999725
 30
0.0
 10
208.251307
 20
89.033930
 30
0.0
 10
209.034517
 20
88.251525
 30
0.0
 10
210.000312
 20
88.251525
 30
0.0
  0
SPLINE
  5
1be
100
AcDbEntity
  8
0
 62
7
100
AcDbSpline
 70
8
 71
3
 72
8
 73
4
 74
0
 40
0
 40
0
 40
0
 40
0
 40
1
 40
1
 40
1
 40
1
 10
210.000312
 20
88.251525
 30
0.0
 10
210.966108
 20
88.251525
 30
0.0
 10
211.749318
 20
89.033930
 30
0.0
 10
211.750311
 20
89.999725
 30
0.0
  0
LWPOLYLINE
  5
1bf
100
AcDbEntity
  8
0
 62
7
100
AcDbPolyline
 90
1
 70
1
 10
131.750308
 20
89.999725
 30
0.0
  0
SPLINE
  5
1c0
100
AcDbEntity
  8
0
 62
7
100
AcDbSpline
 70
8
 71
3
 72
8
 73
4
 74
0
 40
0
 40
0
 40
0
 40
0
 40
1
 40
1
 40
1
 40
1
 10
31.750293
 20
109.999712
 30
0.0
 10
31.747749
 20
110.964406
 30
0.0
 10
30.964996
 20
111.745097
 30
0.0
 10
30.000299
 20
111.745097
 30
0.0
  0
SPLINE
  5
1c1
100
AcDbEntity
  8
0
 62
7
100
AcDbSpline
 70
8
 71
3
 72
8
 73
4
 74
0
 40
0
 40
0
 40
0
 40
0
 40
1
 40
1
 40
1
 40
1
 10
30.000299
 20
111.745097
 30
0.0
 10
29.035602
 20
111.745097
 30
0.0
 10
28.252849
 20
110.964406
 30
0.0
 10
28.250305
 20
109.999712
 30
0.0
  0
SPLINE
  5
1c2
100
AcDbEntity
  8
0
 62
7
100
AcDbSpline
 70
8
 71
3
 72
8
 73
4
 74
0
 40
0
 40
0
 40
0
 40
0
 40
1
 40
1
 40
1
 40
1
 10
28.250305
 20
109.999712
 30
0.0
 10
28.252849
 20
109.035019
 30
0.0
 10
29.035602
 20
108.254328
 30
0.0
 10
30.000299
 20
108.254328
 30
0.0
  0
SPLINE
  5
1c3
100
AcDbEntity
  8
0
 62
7
100
AcDbSpline
 70
8
 71
3
 72
8
 73
4
 74
0
 40
0
 40
0
 40
0
 40
0
 40
1
 40
1
 40
1
 40
1
 10
30.000299
 20
108.254328
 30
0.0
 10
30.964996
 20
108.254328
 30
0.0
 10
31.747749
 20
109.035019
 30
0.0
 10
31.750293
 20
109.999712
 30
0.0
  0
LWPOLYLINE
  5
1c4
100
AcDbEntity
  8
0
 62
7
100
AcDbPolyline
 90
1
 70
1
 10
211.750311
 20
89.999725
 30
0.0
  0
SPLINE
  5
1c5
100
AcDbEntity
  8
0
 62
7
100
AcDbSpline
 70
8
 71
3
 72
8
 73
4
 74
0
 40
0
 40
0
 40
0
 40
0
 40
1
 40
1
 40
1
 40
1
 10
11.750306
 20
109.999712
 30
0.0
 10
11.750306
 20
110.624930
 30
0.0
 10
11.416756
 20
111.202654
 30
0.0
 10
10.875302
 20
111.515263
 30
0.0
  0
SPLINE
  5
1c6
100
AcDbEntity
  8
0
 62
7
100
AcDbSpline
 70
8
 71
3
 72
8
 73
4
 74
0
 40
0
 40
0
 40
0
 40
0
 40
1
 40
1
 40
1
 40
1
 10
10.875302
 20
111.515263
 30
0.0
 10
10.333848
 20
111.827872
 30
0.0
 10
9.666749
 20
111.827872
 30
0.0
 10
9.125295
 20
111.515263
 30
0.0
  0
SPLINE
  5
1c7
100
AcDbEntity
  8
0
 62
7
100
AcDbSpline
 70
8
 71
3
 72
8
 73
4
 74
0
 40
0
 40
0
 40
0
 40
0
 40
1
 40
1
 40
1
 40
1
 10
9.125295
 20
111.515263
 30
0.0
 10
8.583841
 20
111.202654
 30
0.0
 10
8.250291
 20
110.624930
 30
0.0
 10
8.250291
 20
109.999712
 30
0.0
  0
SPLINE
  5
1c8
100
AcDbEntity
  8
0
 62
7
100
AcDbSpline
 70
8
 71
3
 72
8
 73
4
 74
0
 40
0
 40
0
 40
0
 40
0
 40
1
 40
1
 40
1
 40
1
 10
8.250291
 20
109.999712
 30
0.0
 10
8.250291
 20
109.374495
 30
0.0
 10
8.583841
 20
108.796770
 30
0.0
 10
9.125295
 20
108.484162
 30
0.0
  0
SPLINE
  5
1c9
100
AcDbEntity
  8
0
 62
7
100
AcDbSpline
 70
8
 71
3
 72
8
 73
4
 74
0
 40
0
 40
0
 40
0
 40
0
 40
1
 40
1
 40
1
 40
1
 10
9.125295
 20
108.484162
 30
0.0
 10
9.666749
 20
108.171553
 30
0.0
 10
10.333848
 20
108.171553
 30
0.0
 10
10.875302
 20
108.484162
 30
0.0
  0
SPLINE
  5
1ca
100
AcDbEntity
  8
0
 62
7
100
AcDbSpline
 70
8
 71
3
 72
8
 73
4
 74
0
 40
0
 40
0
 40
0
 40
0
 40
1
 40
1
 40
1
 40
1
 10
10.875302
 20
108.484162
 30
0.0
 10
11.416756
 20
108.796770
 30
0.0
 10
11.750306
 20
109.374495
 30
0.0
 10
11.750306
 20
109.999712
 30
0.0
  0
LWPOLYLINE
  5
1cb
100
AcDbEntity
  8
0
 62
7
100
AcDbPolyline
 90
1
 70
1
 10
31.750293
 20
109.999712
 30
0.0
  0
SPLINE
  5
1cc
100
AcDbEntity
  8
0
 62
7
100
AcDbSpline
 70
8
 71
3
 72
8
 73
4
 74
0
 40
0
 40
0
 40
0
 40
0
 40
1
 40
1
 40
1
 40
1
 10
251.750316
 20
69.999711
 30
0.0
 10
251.750316
 20
70.624926
 30
0.0
 10
251.416768
 20
71.202648
 30
0.0
 10
250.875316
 20
71.515256
 30
0.0
  0
SPLINE
  5
1cd
100
AcDbEntity
  8
0
 62
7
100
AcDbSpline
 70
8
 71
3
 72
8
 73
4
 74
0
 40
0
 40
0
 40
0
 40
0
 40
1
 40
1
 40
1
 40
1
 10
250.875316
 20
71.515256
 30
0.0
 10
250.333864
 20
71.827863
 30
0.0
 10
249.666767
 20
71.827863
 30
0.0
 10
249.125315
 20
71.515256
 30
0.0
  0
SPLINE
  5
1ce
100
AcDbEntity
  8
0
 62
7
100
AcDbSpline
 70
8
 71
3
 72
8
 73
4
 74
0
 40
0
 40
0
 40
0
 40
0
 40
1
 40
1
 40
1
 40
1
 10
249.125315
 20
71.515256
 30
0.0
 10
248.583863
 20
71.202648
 30
0.0
 10
248.250315
 20
70.624926
 30
0.0
 10
248.250315
 20
69.999711
 30
0.0
  0
SPLINE
  5
1cf
100
AcDbEntity
  8
0
 62
7
100
AcDbSpline
 70
8
 71
3
 72
8
 73
4
 74
0
 40
0
 40
0
 40
0
 40
0
 40
1
 40
1
 40
1
 40
1
 10
248.250315
 20
69.999711
 30
0.0
 10
248.250315
 20
69.374496
 30
0.0
 10
248.583863
 20
68.796773
 30
0.0
 10
249.125315
 20
68.484166
 30
0.0
  0
SPLINE
  5
1d0
100
AcDbEntity
  8
0
 62
7
100
AcDbSpline
 70
8
 71
3
 72
8
 73
4
 74
0
 40
0
 40
0
 40
0
 40
0
 40
1
 40
1
 40
1
 40
1
 10
249.125315
 20
68.484166
 30
0.0
 10
249.666767
 20
68.171558
 30
0.0
 10
250.333864
 20
68.171558
 30
0.0
 10
250.875316
 20
68.484166
 30
0.0
  0
SPLINE
  5
1d1
100
AcDbEntity
  8
0
 62
7
100
AcDbSpline
 70
8
 71
3
 72
8
 73
4
 74
0
 40
0
 40
0
 40
0
 40
0
 40
1
 40
1
 40
1
 40
1
 10
250.875316
 20
68.484166
 30
0.0
 10
251.416768
 20
68.796773
 30
0.0
 10
251.750316
 20
69.374496
 30
0.0
 10
251.750316
 20
69.999711
 30
0.0
  0
LWPOLYLINE
  5
1d2
100
AcDbEntity
  8
0
 62
7
100
AcDbPolyline
 90
1
 70
1
 10
11.750306
 20
109.999712
 30
0.0
  0
SPLINE
  5
1d3
100
AcDbEntity
  8
0
 62
7
100
AcDbSpline
 70
8
 71
3
 72
8
 73
4
 74
0
 40
0
 40
0
 40
0
 40
0
 40
1
 40
1
 40
1
 40
1
 10
211.750311
 20
69.999711
 30
0.0
 10
211.749318
 20
70.965506
 30
0.0
 10
210.966108
 20
71.747911
 30
0.0
 10
210.000312
 20
71.747911
 30
0.0
  0
SPLINE
  5
1d4
100
AcDbEntity
  8
0
 62
7
100
AcDbSpline
 70
8
 71
3
 72
8
 73
4
 74
0
 40
0
 40
0
 40
0
 40
0
 40
1
 40
1
 40
1
 40
1
 10
210.000312
 20
71.747911
 30
0.0
 10
209.034517
 20
71.747911
 30
0.0
 10
208.251307
 20
70.965506
 30
0.0
 10
208.250313
 20
69.999711
 30
0.0
  0
SPLINE
  5
1d5
100
AcDbEntity
  8
0
 62
7
100
AcDbSpline
 70
8
 71
3
 72
8
 73
4
 74
0
 40
0
 40
0
 40
0
 40
0
 40
1
 40
1
 40
1
 40
1
 10
208.250313
 20
69.999711
 30
0.0
 10
208.251307
 20
69.033916
 30
0.0
 10
209.034517
 20
68.251511
 30
0.0
 10
210.000312
 20
68.251511
 30
0.0
  0
SPLINE
  5
1d6
100
AcDbEntity
  8
0
 62
7
100
AcDbSpline
 70
8
 71
3
 72
8
 73
4
 74
0
 40
0
 40
0
 40
0
 40
0
 40
1
 40
1
 40
1
 40
1
 10
210.000312
 20
68.251511
 30
0.0
 10
210.966108
 20
68.251511
 30
0.0
 10
211.749318
 20
69.033916
 30
0.0
 10
211.750311
 20
69.999711
 30
0.0
  0
LWPOLYLINE
  5
1d7
100
AcDbEntity
  8
0
 62
7
100
AcDbPolyline
 90
1
 70
1
 10
251.750316
 20
69.999711
 30
0.0
  0
SPLINE
  5
1d8
100
AcDbEntity
  8
0
 62
7
100
AcDbSpline
 70
8
 71
3
 72
8
 73
4
 74
0
 40
0
 40
0
 40
0
 40
0
 40
1
 40
1
 40
1
 40
1
 10
271.750330
 20
69.999711
 30
0.0
 10
271.750330
 20
70.624928
 30
0.0
 10
271.416780
 20
71.202653
 30
0.0
 10
270.875326
 20
71.515261
 30
0.0
  0
SPLINE
  5
1d9
100
AcDbEntity
  8
0
 62
7
100
AcDbSpline
 70
8
 71
3
 72
8
 73
4
 74
0
 40
0
 40
0
 40
0
 40
0
 40
1
 40
1
 40
1
 40
1
 10
270.875326
 20
71.515261
 30
0.0
 10
270.333872
 20
71.827870
 30
0.0
 10
269.666773
 20
71.827870
 30
0.0
 10
269.125319
 20
71.515261
 30
0.0
  0
SPLINE
  5
1da
100
AcDbEntity
  8
0
 62
7
100
AcDbSpline
 70
8
 71
3
 72
8
 73
4
 74
0
 40
0
 40
0
 40
0
 40
0
 40
1
 40
1
 40
1
 40
1
 10
269.125319
 20
71.515261
 30
0.0
 10
268.583865
 20
71.202653
 30
0.0
 10
268.250316
 20
70.624928
 30
0.0
 10
268.250316
 20
69.999711
 30
0.0
  0
SPLINE
  5
1db
100
AcDbEntity
  8
0
 62
7
100
AcDbSpline
 70
8
 71
3
 72
8
 73
4
 74
0
 40
0
 40
0
 40
0
 40
0
 40
1
 40
1
 40
1
 40
1
 10
268.250316
 20
69.999711
 30
0.0
 10
268.250316
 20
69.374493
 30
0.0
 10
268.583865
 20
68.796769
 30
0.0
 10
269.125319
 20
68.484160
 30
0.0
  0
SPLINE
  5
1dc
100
AcDbEntity
  8
0
 62
7
100
AcDbSpline
 70
8
 71
3
 72
8
 73
4
 74
0
 40
0
 40
0
 40
0
 40
0
 40
1
 40
1
 40
1
 40
1
 10
269.125319
 20
68.484160
 30
0.0
 10
269.666773
 20
68.171551
 30
0.0
 10
270.333872
 20
68.171551
 30
0.0
 10
270.875326
 20
68.484160
 30
0.0
  0
SPLINE
  5
1dd
100
AcDbEntity
  8
0
 62
7
100
AcDbSpline
 70
8
 71
3
 72
8
 73
4
 74
0
 40
0
 40
0
 40
0
 40
0
 40
1
 40
1
 40
1
 40
1
 10
270.875326
 20
68.484160
 30
0.0
 10
271.416780
 20
68.796769
 30
0.0
 10
271.750330
 20
69.374493
 30
0.0
 10
271.750330
 20
69.999711
 30
0.0
  0
LWPOLYLINE
  5
1de
100
AcDbEntity
  8
0
 62
7
100
AcDbPolyline
 90
1
 70
1
 10
211.750311
 20
69.999711
 30
0.0
  0
SPLINE
  5
1df
100
AcDbEntity
  8
0
 62
7
100
AcDbSpline
 70
8
 71
3
 72
8
 73
4
 74
0
 40
0
 40
0
 40
0
 40
0
 40
1
 40
1
 40
1
 40
1
 10
251.750316
 20
149.999714
 30
0.0
 10
251.750316
 20
150.624929
 30
0.0
 10
251.416768
 20
151.202652
 30
0.0
 10
250.875316
 20
151.515259
 30
0.0
  0
SPLINE
  5
1e0
100
AcDbEntity
  8
0
 62
7
100
AcDbSpline
 70
8
 71
3
 72
8
 73
4
 74
0
 40
0
 40
0
 40
0
 40
0
 40
1
 40
1
 40
1
 40
1
 10
250.875316
 20
151.515259
 30
0.0
 10
250.333864
 20
151.827867
 30
0.0
 10
249.666767
 20
151.827867
 30
0.0
 10
249.125315
 20
151.515259
 30
0.0
  0
SPLINE
  5
1e1
100
AcDbEntity
  8
0
 62
7
100
AcDbSpline
 70
8
 71
3
 72
8
 73
4
 74
0
 40
0
 40
0
 40
0
 40
0
 40
1
 40
1
 40
1
 40
1
 10
249.125315
 20
151.515259
 30
0.0
 10
248.583863
 20
151.202652
 30
0.0
 10
248.250315
 20
150.624929
 30
0.0
 10
248.250315
 20
149.999714
 30
0.0
  0
SPLINE
  5
1e2
100
AcDbEntity
  8
0
 62
7
100
AcDbSpline
 70
8
 71
3
 72
8
 73
4
 74
0
 40
0
 40
0
 40
0
 40
0
 40
1
 40
1
 40
1
 40
1
 10
248.250315
 20
149.999714
 30
0.0
 10
248.250315
 20
149.374499
 30
0.0
 10
248.583863
 20
148.796777
 30
0.0
 10
249.125315
 20
148.484169
 30
0.0
  0
SPLINE
  5
1e3
100
AcDbEntity
  8
0
 62
7
100
AcDbSpline
 70
8
 71
3
 72
8
 73
4
 74
0
 40
0
 40
0
 40
0
 40
0
 40
1
 40
1
 40
1
 40
1
 10
249.125315
 20
148.484169
 30
0.0
 10
249.666767
 20
148.171562
 30
0.0
 10
250.333864
 20
148.171562
 30
0.0
 10
250.875316
 20
148.484169
 30
0.0
  0
SPLINE
  5
1e4
100
AcDbEntity
  8
0
 62
7
100
AcDbSpline
 70
8
 71
3
 72
8
 73
4
 74
0
 40
0
 40
0
 40
0
 40
0
 40
1
 40
1
 40
1
 40
1
 10
250.875316
 20
148.484169
 30
0.0
 10
251.416768
 20
148.796777
 30
0.0
 10
251.750316
 20
149.374499
 30
0.0
 10
251.750316
 20
149.999714
 30
0.0
  0
LWPOLYLINE
  5
1e5
100
AcDbEntity
  8
0
 62
7
100
AcDbPolyline
 90
1
 70
1
 10
271.750330
 20
69.999711
 30
0.0
  0
SPLINE
  5
1e6
100
AcDbEntity
  8
0
 62
7
100
AcDbSpline
 70
8
 71
3
 72
8
 73
4
 74
0
 40
0
 40
0
 40
0
 40
0
 40
1
 40
1
 40
1
 40
1
 10
291.750318
 20
169.999728
 30
0.0
 10
291.747746
 20
170.964402
 30
0.0
 10
290.965001
 20
171.745064
 30
0.0
 10
290.000324
 20
171.745064
 30
0.0
  0
SPLINE
  5
1e7
100
AcDbEntity
  8
0
 62
7
100
AcDbSpline
 70
8
 71
3
 72
8
 73
4
 74
0
 40
0
 40
0
 40
0
 40
0
 40
1
 40
1
 40
1
 40
1
 10
290.000324
 20
171.745064
 30
0.0
 10
289.035647
 20
171.745064
 30
0.0
 10
288.252901
 20
170.964402
 30
0.0
 10
288.250330
 20
169.999728
 30
0.0
  0
SPLINE
  5
1e8
100
AcDbEntity
  8
0
 62
7
100
AcDbSpline
 70
8
 71
3
 72
8
 73
4
 74
0
 40
0
 40
0
 40
0
 40
0
 40
1
 40
1
 40
1
 40
1
 10
288.250330
 20
169.999728
 30
0.0
 10
288.252901
 20
169.035055
 30
0.0
 10
289.035647
 20
168.254393
 30
0.0
 10
290.000324
 20
168.254393
 30
0.0
  0
SPLINE
  5
1e9
100
AcDbEntity
  8
0
 62
7
100
AcDbSpline
 70
8
 71
3
 72
8
 73
4
 74
0
 40
0
 40
0
 40
0
 40
0
 40
1
 40
1
 40
1
 40
1
 10
290.000324
 20
168.254393
 30
0.0
 10
290.965001
 20
168.254393
 30
0.0
 10
291.747746
 20
169.035055
 30
0.0
 10
291.750318
 20
169.999728
 30
0.0
  0
LWPOLYLINE
  5
1ea
100
AcDbEntity
  8
0
 62
7
100
AcDbPolyline
 90
1
 70
1
 10
251.750316
 20
149.999714
 30
0.0
  0
SPLINE
  5
1eb
100
AcDbEntity
  8
0
 62
7
100
AcDbSpline
 70
8
 71
3
 72
8
 73
4
 74
0
 40
0
 40
0
 40
0
 40
0
 40
1
 40
1
 40
1
 40
1
 10
211.750311
 20
149.999714
 30
0.0
 10
211.749318
 20
150.965509
 30
0.0
 10
210.966108
 20
151.747914
 30
0.0
 10
210.000312
 20
151.747914
 30
0.0
  0
SPLINE
  5
1ec
100
AcDbEntity
  8
0
 62
7
100
AcDbSpline
 70
8
 71
3
 72
8
 73
4
 74
0
 40
0
 40
0
 40
0
 40
0
 40
1
 40
1
 40
1
 40
1
 10
210.000312
 20
151.747914
 30
0.0
 10
209.034517
 20
151.747914
 30
0.0
 10
208.251307
 20
150.965509
 30
0.0
 10
208.250313
 20
149.999714
 30
0.0
  0
SPLINE
  5
1ed
100
AcDbEntity
  8
0
 62
7
100
AcDbSpline
 70
8
 71
3
 72
8
 73
4
 74
0
 40
0
 40
0
 40
0
 40
0
 40
1
 40
1
 40
1
 40
1
 10
208.250313
 20
149.999714
 30
0.0
 10
208.251307
 20
149.033919
 30
0.0
 10
209.034517
 20
148.251514
 30
0.0
 10
210.000312
 20
148.251514
 30
0.0
  0
SPLINE
  5
1ee
100
AcDbEntity
  8
0
 62
7
100
AcDbSpline
 70
8
 71
3
 72
8
 73
4
 74
0
 40
0
 40
0
 40
0
 40
0
 40
1
 40
1
 40
1
 40
1
 10
210.000312
 20
148.251514
 30
0.0
 10
210.966108
 20
148.251514
 30
0.0
 10
211.749318
 20
149.033919
 30
0.0
 10
211.750311
 20
149.999714
 30
0.0
  0
LWPOLYLINE
  5
1ef
100
AcDbEntity
  8
0
 62
7
100
AcDbPolyline
 90
1
 70
1
 10
291.750318
 20
169.999728
 30
0.0
  0
SPLINE
  5
1f0
100
AcDbEntity
  8
0
 62
7
100
AcDbSpline
 70
8
 71
3
 72
8
 73
4
 74
0
 40
0
 40
0
 40
0
 40
0
 40
1
 40
1
 40
1
 40
1
 10
271.750330
 20
149.999714
 30
0.0
 10
271.750330
 20
150.624932
 30
0.0
 10
271.416780
 20
151.202656
 30
0.0
 10
270.875326
 20
151.515265
 30
0.0
  0
SPLINE
  5
1f1
100
AcDbEntity
  8
0
 62
7
100
AcDbSpline
 70
8
 71
3
 72
8
 73
4
 74
0
 40
0
 40
0
 40
0
 40
0
 40
1
 40
1
 40
1
 40
1
 10
270.875326
 20
151.515265
 30
0.0
 10
270.333872
 20
151.827874
 30
0.0
 10
269.666773
 20
151.827874
 30
0.0
 10
269.125319
 20
151.515265
 30
0.0
  0
SPLINE
  5
1f2
100
AcDbEntity
  8
0
 62
7
100
AcDbSpline
 70
8
 71
3
 72
8
 73
4
 74
0
 40
0
 40
0
 40
0
 40
0
 40
1
 40
1
 40
1
 40
1
 10
269.125319
 20
151.515265
 30
0.0
 10
268.583865
 20
151.202656
 30
0.0
 10
268.250316
 20
150.624932
 30
0.0
 10
268.250316
 20
149.999714
 30
0.0
  0
SPLINE
  5
1f3
100
AcDbEntity
  8
0
 62
7
100
AcDbSpline
 70
8
 71
3
 72
8
 73
4
 74
0
 40
0
 40
0
 40
0
 40
0
 40
1
 40
1
 40
1
 40
1
 10
268.250316
 20
149.999714
 30
0.0
 10
268.250316
 20
149.374497
 30
0.0
 10
268.583865
 20
148.796772
 30
0.0
 10
269.125319
 20
148.484164
 30
0.0
  0
SPLINE
  5
1f4
100
AcDbEntity
  8
0
 62
7
100
AcDbSpline
 70
8
 71
3
 72
8
 73
4
 74
0
 40
0
 40
0
 40
0
 40
0
 40
1
 40
1
 40
1
 40
1
 10
269.125319
 20
148.484164
 30
0.0
 10
269.666773
 20
148.171555
 30
0.0
 10
270.333872
 20
148.171555
 30
0.0
 10
270.875326
 20
148.484164
 30
0.0
  0
SPLINE
  5
1f5
100
AcDbEntity
  8
0
 62
7
100
AcDbSpline
 70
8
 71
3
 72
8
 73
4
 74
0
 40
0
 40
0
 40
0
 40
0
 40
1
 40
1
 40
1
 40
1
 10
270.875326
 20
148.484164
 30
0.0
 10
271.416780
 20
148.796772
 30
0.0
 10
271.750330
 20
149.374497
 30
0.0
 10
271.750330
 20
149.999714
 30
0.0
  0
LWPOLYLINE
  5
1f6
100
AcDbEntity
  8
0
 62
7
100
AcDbPolyline
 90
1
 70
1
 10
211.750311
 20
149.999714
 30
0.0
  0
SPLINE
  5
1f7
100
AcDbEntity
  8
0
 62
7
100
AcDbSpline
 70
8
 71
3
 72
8
 73
4
 74
0
 40
0
 40
0
 40
0
 40
0
 40
1
 40
1
 40
1
 40
1
 10
291.750318
 20
129.999727
 30
0.0
 10
291.747746
 20
130.964400
 30
0.0
 10
290.965001
 20
131.745062
 30
0.0
 10
290.000324
 20
131.745062
 30
0.0
  0
SPLINE
  5
1f8
100
AcDbEntity
  8
0
 62
7
100
AcDbSpline
 70
8
 71
3
 72
8
 73
4
 74
0
 40
0
 40
0
 40
0
 40
0
 40
1
 40
1
 40
1
 40
1
 10
290.000324
 20
131.745062
 30
0.0
 10
289.035647
 20
131.745062
 30
0.0
 10
288.252901
 20
130.964400
 30
0.0
 10
288.250330
 20
129.999727
 30
0.0
  0
SPLINE
  5
1f9
100
AcDbEntity
  8
0
 62
7
100
AcDbSpline
 70
8
 71
3
 72
8
 73
4
 74
0
 40
0
 40
0
 40
0
 40
0
 40
1
 40
1
 40
1
 40
1
 10
288.250330
 20
129.999727
 30
0.0
 10
288.252901
 20
129.035053
 30
0.0
 10
289.035647
 20
128.254391
 30
0.0
 10
290.000324
 20
128.254391
 30
0.0
  0
SPLINE
  5
1fa
100
AcDbEntity
  8
0
 62
7
100
AcDbSpline
 70
8
 71
3
 72
8
 73
4
 74
0
 40
0
 40
0
 40
0
 40
0
 40
1
 40
1
 40
1
 40
1
 10
290.000324
 20
128.254391
 30
0.0
 10
290.965001
 20
128.254391
 30
0.0
 10
291.747746
 20
129.035053
 30
0.0
 10
291.750318
 20
129.999727
 30
0.0
  0
LWPOLYLINE
  5
1fb
100
AcDbEntity
  8
0
 62
7
100
AcDbPolyline
 90
1
 70
1
 10
271.750330
 20
149.999714
 30
0.0
  0
SPLINE
  5
1fc
100
AcDbEntity
  8
0
 62
7
100
AcDbSpline
 70
8
 71
3
 72
8
 73
4
 74
0
 40
0
 40
0
 40
0
 40
0
 40
1
 40
1
 40
1
 40
1
 10
231.750312
 20
129.999727
 30
0.0
 10
231.749392
 20
130.965574
 30
0.0
 10
230.966161
 20
131.748060
 30
0.0
 10
230.000313
 20
131.748060
 30
0.0
  0
SPLINE
  5
1fd
100
AcDbEntity
  8
0
 62
7
100
AcDbSpline
 70
8
 71
3
 72
8
 73
4
 74
0
 40
0
 40
0
 40
0
 40
0
 40
1
 40
1
 40
1
 40
1
 10
230.000313
 20
131.748060
 30
0.0
 10
229.034466
 20
131.748060
 30
0.0
 10
228.251234
 20
130.965574
 30
0.0
 10
228.250314
 20
129.999727
 30
0.0
  0
SPLINE
  5
1fe
100
AcDbEntity
  8
0
 62
7
100
AcDbSpline
 70
8
 71
3
 72
8
 73
4
 74
0
 40
0
 40
0
 40
0
 40
0
 40
1
 40
1
 40
1
 40
1
 10
228.250314
 20
129.999727
 30
0.0
 10
228.251234
 20
129.033880
 30
0.0
 10
229.034466
 20
128.251393
 30
0.0
 10
230.000313
 20
128.251393
 30
0.0
  0
SPLINE
  5
1ff
100
AcDbEntity
  8
0
 62
7
100
AcDbSpline
 70
8
 71
3
 72
8
 73
4
 74
0
 40
0
 40
0
 40
0
 40
0
 40
1
 40
1
 40
1
 40
1
 10
230.000313
 20
128.251393
 30
0.0
 10
230.966161
 20
128.251393
 30
0.0
 10
231.749392
 20
129.033880
 30
0.0
 10
231.750312
 20
129.999727
 30
0.0
  0
LWPOLYLINE
  5
200
100
AcDbEntity
  8
0
 62
7
100
AcDbPolyline
 90
1
 70
1
 10
291.750318
 20
129.999727
 30
0.0
  0
SPLINE
  5
201
100
AcDbEntity
  8
0
 62
7
100
AcDbSpline
 70
8
 71
3
 72
8
 73
4
 74
0
 40
0
 40
0
 40
0
 40
0
 40
1
 40
1
 40
1
 40
1
 10
251.750316
 20
109.999712
 30
0.0
 10
251.750316
 20
110.624927
 30
0.0
 10
251.416768
 20
111.202650
 30
0.0
 10
250.875316
 20
111.515257
 30
0.0
  0
SPLINE
  5
202
100
AcDbEntity
  8
0
 62
7
100
AcDbSpline
 70
8
 71
3
 72
8
 73
4
 74
0
 40
0
 40
0
 40
0
 40
0
 40
1
 40
1
 40
1
 40
1
 10
250.875316
 20
111.515257
 30
0.0
 10
250.333864
 20
111.827865
 30
0.0
 10
249.666767
 20
111.827865
 30
0.0
 10
249.125315
 20
111.515257
 30
0.0
  0
SPLINE
  5
203
100
AcDbEntity
  8
0
 62
7
100
AcDbSpline
 70
8
 71
3
 72
8
 73
4
 74
0
 40
0
 40
0
 40
0
 40
0
 40
1
 40
1
 40
1
 40
1
 10
249.125315
 20
111.515257
 30
0.0
 10
248.583863
 20
111.202650
 30
0.0
 10
248.250315
 20
110.624927
 30
0.0
 10
248.250315
 20
109.999712
 30
0.0
  0
SPLINE
  5
204
100
AcDbEntity
  8
0
 62
7
100
AcDbSpline
 70
8
 71
3
 72
8
 73
4
 74
0
 40
0
 40
0
 40
0
 40
0
 40
1
 40
1
 40
1
 40
1
 10
248.250315
 20
109.999712
 30
0.0
 10
248.250315
 20
109.374497
 30
0.0
 10
248.583863
 20
108.796775
 30
0.0
 10
249.125315
 20
108.484168
 30
0.0
  0
SPLINE
  5
205
100
AcDbEntity
  8
0
 62
7
100
AcDbSpline
 70
8
 71
3
 72
8
 73
4
 74
0
 40
0
 40
0
 40
0
 40
0
 40
1
 40
1
 40
1
 40
1
 10
249.125315
 20
108.484168
 30
0.0
 10
249.666767
 20
108.171560
 30
0.0
 10
250.333864
 20
108.171560
 30
0.0
 10
250.875316
 20
108.484168
 30
0.0
  0
SPLINE
  5
206
100
AcDbEntity
  8
0
 62
7
100
AcDbSpline
 70
8
 71
3
 72
8
 73
4
 74
0
 40
0
 40
0
 40
0
 40
0
 40
1
 40
1
 40
1
 40
1
 10
250.875316
 20
108.484168
 30
0.0
 10
251.416768
 20
108.796775
 30
0.0
 10
251.750316
 20
109.374497
 30
0.0
 10
251.750316
 20
109.999712
 30
0.0
  0
LWPOLYLINE
  5
207
100
AcDbEntity
  8
0
 62
7
100
AcDbPolyline
 90
1
 70
1
 10
231.750312
 20
129.999727
 30
0.0
  0
SPLINE
  5
208
100
AcDbEntity
  8
0
 62
7
100
AcDbSpline
 70
8
 71
3
 72
8
 73
4
 74
0
 40
0
 40
0
 40
0
 40
0
 40
1
 40
1
 40
1
 40
1
 10
171.750310
 20
129.999727
 30
0.0
 10
171.750310
 20
130.624942
 30
0.0
 10
171.416761
 20
131.202664
 30
0.0
 10
170.875309
 20
131.515272
 30
0.0
  0
SPLINE
  5
209
100
AcDbEntity
  8
0
 62
7
100
AcDbSpline
 70
8
 71
3
 72
8
 73
4
 74
0
 40
0
 40
0
 40
0
 40
0
 40
1
 40
1
 40
1
 40
1
 10
170.875309
 20
131.515272
 30
0.0
 10
170.333857
 20
131.827879
 30
0.0
 10
169.666761
 20
131.827879
 30
0.0
 10
169.125309
 20
131.515272
 30
0.0
  0
SPLINE
  5
20a
100
AcDbEntity
  8
0
 62
7
100
AcDbSpline
 70
8
 71
3
 72
8
 73
4
 74
0
 40
0
 40
0
 40
0
 40
0
 40
1
 40
1
 40
1
 40
1
 10
169.125309
 20
131.515272
 30
0.0
 10
168.583857
 20
131.202664
 30
0.0
 10
168.250309
 20
130.624942
 30
0.0
 10
168.250309
 20
129.999727
 30
0.0
  0
SPLINE
  5
20b
100
AcDbEntity
  8
0
 62
7
100
AcDbSpline
 70
8
 71
3
 72
8
 73
4
 74
0
 40
0
 40
0
 40
0
 40
0
 40
1
 40
1
 40
1
 40
1
 10
168.250309
 20
129.999727
 30
0.0
 10
168.250309
 20
129.374512
 30
0.0
 10
168.583857
 20
128.796789
 30
0.0
 10
169.125309
 20
128.484182
 30
0.0
  0
SPLINE
  5
20c
100
AcDbEntity
  8
0
 62
7
100
AcDbSpline
 70
8
 71
3
 72
8
 73
4
 74
0
 40
0
 40
0
 40
0
 40
0
 40
1
 40
1
 40
1
 40
1
 10
169.125309
 20
128.484182
 30
0.0
 10
169.666761
 20
128.171574
 30
0.0
 10
170.333857
 20
128.171574
 30
0.0
 10
170.875309
 20
128.484182
 30
0.0
  0
SPLINE
  5
20d
100
AcDbEntity
  8
0
 62
7
100
AcDbSpline
 70
8
 71
3
 72
8
 73
4
 74
0
 40
0
 40
0
 40
0
 40
0
 40
1
 40
1
 40
1
 40
1
 10
170.875309
 20
128.484182
 30
0.0
 10
171.416761
 20
128.796789
 30
0.0
 10
171.750310
 20
129.374512
 30
0.0
 10
171.750310
 20
129.999727
 30
0.0
  0
LWPOLYLINE
  5
20e
100
AcDbEntity
  8
0
 62
7
100
AcDbPolyline
 90
1
 70
1
 10
251.750316
 20
109.999712
 30
0.0
  0
SPLINE
  5
20f
100
AcDbEntity
  8
0
 62
7
100
AcDbSpline
 70
8
 71
3
 72
8
 73
4
 74
0
 40
0
 40
0
 40
0
 40
0
 40
1
 40
1
 40
1
 40
1
 10
191.750311
 20
129.999727
 30
0.0
 10
191.750311
 20
130.624942
 30
0.0
 10
191.416762
 20
131.202664
 30
0.0
 10
190.875310
 20
131.515272
 30
0.0
  0
SPLINE
  5
210
100
AcDbEntity
  8
0
 62
7
100
AcDbSpline
 70
8
 71
3
 72
8
 73
4
 74
0
 40
0
 40
0
 40
0
 40
0
 40
1
 40
1
 40
1
 40
1
 10
190.875310
 20
131.515272
 30
0.0
 10
190.333858
 20
131.827879
 30
0.0
 10
189.666762
 20
131.827879
 30
0.0
 10
189.125310
 20
131.515272
 30
0.0
  0
SPLINE
  5
211
100
AcDbEntity
  8
0
 62
7
100
AcDbSpline
 70
8
 71
3
 72
8
 73
4
 74
0
 40
0
 40
0
 40
0
 40
0
 40
1
 40
1
 40
1
 40
1
 10
189.125310
 20
131.515272
 30
0.0
 10
188.583858
 20
131.202664
 30
0.0
 10
188.250309
 20
130.624942
 30
0.0
 10
188.250309
 20
129.999727
 30
0.0
  0
SPLINE
  5
212
100
AcDbEntity
  8
0
 62
7
100
AcDbSpline
 70
8
 71
3
 72
8
 73
4
 74
0
 40
0
 40
0
 40
0
 40
0
 40
1
 40
1
 40
1
 40
1
 10
188.250309
 20
129.999727
 30
0.0
 10
188.250309
 20
129.374512
 30
0.0
 10
188.583858
 20
128.796789
 30
0.0
 10
189.125310
 20
128.484182
 30
0.0
  0
SPLINE
  5
213
100
AcDbEntity
  8
0
 62
7
100
AcDbSpline
 70
8
 71
3
 72
8
 73
4
 74
0
 40
0
 40
0
 40
0
 40
0
 40
1
 40
1
 40
1
 40
1
 10
189.125310
 20
128.484182
 30
0.0
 10
189.666762
 20
128.171574
 30
0.0
 10
190.333858
 20
128.171574
 30
0.0
 10
190.875310
 20
128.484182
 30
0.0
  0
SPLINE
  5
214
100
AcDbEntity
  8
0
 62
7
100
AcDbSpline
 70
8
 71
3
 72
8
 73
4
 74
0
 40
0
 40
0
 40
0
 40
0
 40
1
 40
1
 40
1
 40
1
 10
190.875310
 20
128.484182
 30
0.0
 10
191.416762
 20
128.796789
 30
0.0
 10
191.750311
 20
129.374512
 30
0.0
 10
191.750311
 20
129.999727
 30
0.0
  0
LWPOLYLINE
  5
215
100
AcDbEntity
  8
0
 62
7
100
AcDbPolyline
 90
1
 70
1
 10
171.750310
 20
129.999727
 30
0.0
  0
SPLINE
  5
216
100
AcDbEntity
  8
0
 62
7
100
AcDbSpline
 70
8
 71
3
 72
8
 73
4
 74
0
 40
0
 40
0
 40
0
 40
0
 40
1
 40
1
 40
1
 40
1
 10
291.750318
 20
29.999709
 30
0.0
 10
291.747746
 20
30.964383
 30
0.0
 10
290.965001
 20
31.745044
 30
0.0
 10
290.000324
 20
31.745044
 30
0.0
  0
SPLINE
  5
217
100
AcDbEntity
  8
0
 62
7
100
AcDbSpline
 70
8
 71
3
 72
8
 73
4
 74
0
 40
0
 40
0
 40
0
 40
0
 40
1
 40
1
 40
1
 40
1
 10
290.000324
 20
31.745044
 30
0.0
 10
289.035647
 20
31.745044
 30
0.0
 10
288.252901
 20
30.964383
 30
0.0
 10
288.250330
 20
29.999709
 30
0.0
  0
SPLINE
  5
218
100
AcDbEntity
  8
0
 62
7
100
AcDbSpline
 70
8
 71
3
 72
8
 73
4
 74
0
 40
0
 40
0
 40
0
 40
0
 40
1
 40
1
 40
1
 40
1
 10
288.250330
 20
29.999709
 30
0.0
 10
288.252901
 20
29.035035
 30
0.0
 10
289.035647
 20
28.254374
 30
0.0
 10
290.000324
 20
28.254374
 30
0.0
  0
SPLINE
  5
219
100
AcDbEntity
  8
0
 62
7
100
AcDbSpline
 70
8
 71
3
 72
8
 73
4
 74
0
 40
0
 40
0
 40
0
 40
0
 40
1
 40
1
 40
1
 40
1
 10
290.000324
 20
28.254374
 30
0.0
 10
290.965001
 20
28.254374
 30
0.0
 10
291.747746
 20
29.035035
 30
0.0
 10
291.750318
 20
29.999709
 30
0.0
  0
LWPOLYLINE
  5
21a
100
AcDbEntity
  8
0
 62
7
100
AcDbPolyline
 90
1
 70
1
 10
191.750311
 20
129.999727
 30
0.0
  0
SPLINE
  5
21b
100
AcDbEntity
  8
0
 62
7
100
AcDbSpline
 70
8
 71
3
 72
8
 73
4
 74
0
 40
0
 40
0
 40
0
 40
0
 40
1
 40
1
 40
1
 40
1
 10
131.750308
 20
29.999709
 30
0.0
 10
131.750308
 20
30.624924
 30
0.0
 10
131.416760
 20
31.202646
 30
0.0
 10
130.875308
 20
31.515254
 30
0.0
  0
SPLINE
  5
21c
100
AcDbEntity
  8
0
 62
7
100
AcDbSpline
 70
8
 71
3
 72
8
 73
4
 74
0
 40
0
 40
0
 40
0
 40
0
 40
1
 40
1
 40
1
 40
1
 10
130.875308
 20
31.515254
 30
0.0
 10
130.333856
 20
31.827861
 30
0.0
 10
129.666759
 20
31.827861
 30
0.0
 10
129.125307
 20
31.515254
 30
0.0
  0
SPLINE
  5
21d
100
AcDbEntity
  8
0
 62
7
100
AcDbSpline
 70
8
 71
3
 72
8
 73
4
 74
0
 40
0
 40
0
 40
0
 40
0
 40
1
 40
1
 40
1
 40
1
 10
129.125307
 20
31.515254
 30
0.0
 10
128.583855
 20
31.202646
 30
0.0
 10
128.250307
 20
30.624924
 30
0.0
 10
128.250307
 20
29.999709
 30
0.0
  0
SPLINE
  5
21e
100
AcDbEntity
  8
0
 62
7
100
AcDbSpline
 70
8
 71
3
 72
8
 73
4
 74
0
 40
0
 40
0
 40
0
 40
0
 40
1
 40
1
 40
1
 40
1
 10
128.250307
 20
29.999709
 30
0.0
 10
128.250307
 20
29.374494
 30
0.0
 10
128.583855
 20
28.796771
 30
0.0
 10
129.125307
 20
28.484164
 30
0.0
  0
SPLINE
  5
21f
100
AcDbEntity
  8
0
 62
7
100
AcDbSpline
 70
8
 71
3
 72
8
 73
4
 74
0
 40
0
 40
0
 40
0
 40
0
 40
1
 40
1
 40
1
 40
1
 10
129.125307
 20
28.484164
 30
0.0
 10
129.666759
 20
28.171557
 30
0.0
 10
130.333856
 20
28.171557
 30
0.0
 10
130.875308
 20
28.484164
 30
0.0
  0
SPLINE
  5
220
100
AcDbEntity
  8
0
 62
7
100
AcDbSpline
 70
8
 71
3
 72
8
 73
4
 74
0
 40
0
 40
0
 40
0
 40
0
 40
1
 40
1
 40
1
 40
1
 10
130.875308
 20
28.484164
 30
0.0
 10
131.416760
 20
28.796771
 30
0.0
 10
131.750308
 20
29.374494
 30
0.0
 10
131.750308
 20
29.999709
 30
0.0
  0
LWPOLYLINE
  5
221
100
AcDbEntity
  8
0
 62
7
100
AcDbPolyline
 90
1
 70
1
 10
291.750318
 20
29.999709
 30
0.0
  0
SPLINE
  5
222
100
AcDbEntity
  8
0
 62
7
100
AcDbSpline
 70
8
 71
3
 72
8
 73
4
 74
0
 40
0
 40
0
 40
0
 40
0
 40
1
 40
1
 40
1
 40
1
 10
91.750306
 20
49.999723
 30
0.0
 10
91.750306
 20
50.624938
 30
0.0
 10
91.416758
 20
51.202661
 30
0.0
 10
90.875306
 20
51.515268
 30
0.0
  0
SPLINE
  5
223
100
AcDbEntity
  8
0
 62
7
100
AcDbSpline
 70
8
 71
3
 72
8
 73
4
 74
0
 40
0
 40
0
 40
0
 40
0
 40
1
 40
1
 40
1
 40
1
 10
90.875306
 20
51.515268
 30
0.0
 10
90.333854
 20
51.827876
 30
0.0
 10
89.666757
 20
51.827876
 30
0.0
 10
89.125305
 20
51.515268
 30
0.0
  0
SPLINE
  5
224
100
AcDbEntity
  8
0
 62
7
100
AcDbSpline
 70
8
 71
3
 72
8
 73
4
 74
0
 40
0
 40
0
 40
0
 40
0
 40
1
 40
1
 40
1
 40
1
 10
89.125305
 20
51.515268
 30
0.0
 10
88.583853
 20
51.202661
 30
0.0
 10
88.250305
 20
50.624938
 30
0.0
 10
88.250305
 20
49.999723
 30
0.0
  0
SPLINE
  5
225
100
AcDbEntity
  8
0
 62
7
100
AcDbSpline
 70
8
 71
3
 72
8
 73
4
 74
0
 40
0
 40
0
 40
0
 40
0
 40
1
 40
1
 40
1
 40
1
 10
88.250305
 20
49.999723
 30
0.0
 10
88.250305
 20
49.374508
 30
0.0
 10
88.583853
 20
48.796786
 30
0.0
 10
89.125305
 20
48.484178
 30
0.0
  0
SPLINE
  5
226
100
AcDbEntity
  8
0
 62
7
100
AcDbSpline
 70
8
 71
3
 72
8
 73
4
 74
0
 40
0
 40
0
 40
0
 40
0
 40
1
 40
1
 40
1
 40
1
 10
89.125305
 20
48.484178
 30
0.0
 10
89.666757
 20
48.171571
 30
0.0
 10
90.333854
 20
48.171571
 30
0.0
 10
90.875306
 20
48.484178
 30
0.0
  0
SPLINE
  5
227
100
AcDbEntity
  8
0
 62
7
100
AcDbSpline
 70
8
 71
3
 72
8
 73
4
 74
0
 40
0
 40
0
 40
0
 40
0
 40
1
 40
1
 40
1
 40
1
 10
90.875306
 20
48.484178
 30
0.0
 10
91.416758
 20
48.796786
 30
0.0
 10
91.750306
 20
49.374508
 30
0.0
 10
91.750306
 20
49.999723
 30
0.0
  0
LWPOLYLINE
  5
228
100
AcDbEntity
  8
0
 62
7
100
AcDbPolyline
 90
1
 70
1
 10
131.750308
 20
29.999709
 30
0.0
  0
SPLINE
  5
229
100
AcDbEntity
  8
0
 62
7
100
AcDbSpline
 70
8
 71
3
 72
8
 73
4
 74
0
 40
0
 40
0
 40
0
 40
0
 40
1
 40
1
 40
1
 40
1
 10
91.750306
 20
69.999711
 30
0.0
 10
91.750306
 20
70.624926
 30
0.0
 10
91.416758
 20
71.202648
 30
0.0
 10
90.875306
 20
71.515256
 30
0.0
  0
SPLINE
  5
22a
100
AcDbEntity
  8
0
 62
7
100
AcDbSpline
 70
8
 71
3
 72
8
 73
4
 74
0
 40
0
 40
0
 40
0
 40
0
 40
1
 40
1
 40
1
 40
1
 10
90.875306
 20
71.515256
 30
0.0
 10
90.333854
 20
71.827863
 30
0.0
 10
89.666757
 20
71.827863
 30
0.0
 10
89.125305
 20
71.515256
 30
0.0
  0
SPLINE
  5
22b
100
AcDbEntity
  8
0
 62
7
100
AcDbSpline
 70
8
 71
3
 72
8
 73
4
 74
0
 40
0
 40
0
 40
0
 40
0
 40
1
 40
1
 40
1
 40
1
 10
89.125305
 20
71.515256
 30
0.0
 10
88.583853
 20
71.202648
 30
0.0
 10
88.250305
 20
70.624926
 30
0.0
 10
88.250305
 20
69.999711
 30
0.0
  0
SPLINE
  5
22c
100
AcDbEntity
  8
0
 62
7
100
AcDbSpline
 70
8
 71
3
 72
8
 73
4
 74
0
 40
0
 40
0
 40
0
 40
0
 40
1
 40
1
 40
1
 40
1
 10
88.250305
 20
69.999711
 30
0.0
 10
88.250305
 20
69.374496
 30
0.0
 10
88.583853
 20
68.796773
 30
0.0
 10
89.125305
 20
68.484166
 30
0.0
  0
SPLINE
  5
22d
100
AcDbEntity
  8
0
 62
7
100
AcDbSpline
 70
8
 71
3
 72
8
 73
4
 74
0
 40
0
 40
0
 40
0
 40
0
 40
1
 40
1
 40
1
 40
1
 10
89.125305
 20
68.484166
 30
0.0
 10
89.666757
 20
68.171558
 30
0.0
 10
90.333854
 20
68.171558
 30
0.0
 10
90.875306
 20
68.484166
 30
0.0
  0
SPLINE
  5
22e
100
AcDbEntity
  8
0
 62
7
100
AcDbSpline
 70
8
 71
3
 72
8
 73
4
 74
0
 40
0
 40
0
 40
0
 40
0
 40
1
 40
1
 40
1
 40
1
 10
90.875306
 20
68.484166
 30
0.0
 10
91.416758
 20
68.796773
 30
0.0
 10
91.750306
 20
69.374496
 30
0.0
 10
91.750306
 20
69.999711
 30
0.0
  0
LWPOLYLINE
  5
22f
100
AcDbEntity
  8
0
 62
7
100
AcDbPolyline
 90
1
 70
1
 10
91.750306
 20
49.999723
 30
0.0
  0
SPLINE
  5
230
100
AcDbEntity
  8
0
 62
7
100
AcDbSpline
 70
8
 71
3
 72
8
 73
4
 74
0
 40
0
 40
0
 40
0
 40
0
 40
1
 40
1
 40
1
 40
1
 10
11.750306
 20
49.999723
 30
0.0
 10
11.750306
 20
50.624940
 30
0.0
 10
11.416756
 20
51.202665
 30
0.0
 10
10.875302
 20
51.515274
 30
0.0
  0
SPLINE
  5
231
100
AcDbEntity
  8
0
 62
7
100
AcDbSpline
 70
8
 71
3
 72
8
 73
4
 74
0
 40
0
 40
0
 40
0
 40
0
 40
1
 40
1
 40
1
 40
1
 10
10.875302
 20
51.515274
 30
0.0
 10
10.333848
 20
51.827882
 30
0.0
 10
9.666749
 20
51.827882
 30
0.0
 10
9.125295
 20
51.515274
 30
0.0
  0
SPLINE
  5
232
100
AcDbEntity
  8
0
 62
7
100
AcDbSpline
 70
8
 71
3
 72
8
 73
4
 74
0
 40
0
 40
0
 40
0
 40
0
 40
1
 40
1
 40
1
 40
1
 10
9.125295
 20
51.515274
 30
0.0
 10
8.583841
 20
51.202665
 30
0.0
 10
8.250291
 20
50.624940
 30
0.0
 10
8.250291
 20
49.999723
 30
0.0
  0
SPLINE
  5
233
100
AcDbEntity
  8
0
 62
7
100
AcDbSpline
 70
8
 71
3
 72
8
 73
4
 74
0
 40
0
 40
0
 40
0
 40
0
 40
1
 40
1
 40
1
 40
1
 10
8.250291
 20
49.999723
 30
0.0
 10
8.250291
 20
49.374506
 30
0.0
 10
8.583841
 20
48.796781
 30
0.0
 10
9.125295
 20
48.484172
 30
0.0
  0
SPLINE
  5
234
100
AcDbEntity
  8
0
 62
7
100
AcDbSpline
 70
8
 71
3
 72
8
 73
4
 74
0
 40
0
 40
0
 40
0
 40
0
 40
1
 40
1
 40
1
 40
1
 10
9.125295
 20
48.484172
 30
0.0
 10
9.666749
 20
48.171564
 30
0.0
 10
10.333848
 20
48.171564
 30
0.0
 10
10.875302
 20
48.484172
 30
0.0
  0
SPLINE
  5
235
100
AcDbEntity
  8
0
 62
7
100
AcDbSpline
 70
8
 71
3
 72
8
 73
4
 74
0
 40
0
 40
0
 40
0
 40
0
 40
1
 40
1
 40
1
 40
1
 10
10.875302
 20
48.484172
 30
0.0
 10
11.416756
 20
48.796781
 30
0.0
 10
11.750306
 20
49.374506
 30
0.0
 10
11.750306
 20
49.999723
 30
0.0
  0
LWPOLYLINE
  5
236
100
AcDbEntity
  8
0
 62
7
100
AcDbPolyline
 90
1
 70
1
 10
91.750306
 20
69.999711
 30
0.0
  0
SPLINE
  5
237
100
AcDbEntity
  8
0
 62
7
100
AcDbSpline
 70
8
 71
3
 72
8
 73
4
 74
0
 40
0
 40
0
 40
0
 40
0
 40
1
 40
1
 40
1
 40
1
 10
71.750305
 20
49.999723
 30
0.0
 10
71.750305
 20
50.966222
 30
0.0
 10
70.966803
 20
51.749723
 30
0.0
 10
70.000305
 20
51.749723
 30
0.0
  0
SPLINE
  5
238
100
AcDbEntity
  8
0
 62
7
100
AcDbSpline
 70
8
 71
3
 72
8
 73
4
 74
0
 40
0
 40
0
 40
0
 40
0
 40
1
 40
1
 40
1
 40
1
 10
70.000305
 20
51.749723
 30
0.0
 10
69.033806
 20
51.749723
 30
0.0
 10
68.250304
 20
50.966222
 30
0.0
 10
68.250304
 20
49.999723
 30
0.0
  0
SPLINE
  5
239
100
AcDbEntity
  8
0
 62
7
100
AcDbSpline
 70
8
 71
3
 72
8
 73
4
 74
0
 40
0
 40
0
 40
0
 40
0
 40
1
 40
1
 40
1
 40
1
 10
68.250304
 20
49.999723
 30
0.0
 10
68.250304
 20
49.033224
 30
0.0
 10
69.033806
 20
48.249723
 30
0.0
 10
70.000305
 20
48.249723
 30
0.0
  0
SPLINE
  5
23a
100
AcDbEntity
  8
0
 62
7
100
AcDbSpline
 70
8
 71
3
 72
8
 73
4
 74
0
 40
0
 40
0
 40
0
 40
0
 40
1
 40
1
 40
1
 40
1
 10
70.000305
 20
48.249723
 30
0.0
 10
70.966803
 20
48.249723
 30
0.0
 10
71.750305
 20
49.033224
 30
0.0
 10
71.750305
 20
49.999723
 30
0.0
  0
LWPOLYLINE
  5
23b
100
AcDbEntity
  8
0
 62
7
100
AcDbPolyline
 90
1
 70
1
 10
11.750306
 20
49.999723
 30
0.0
  0
SPLINE
  5
23c
100
AcDbEntity
  8
0
 62
7
100
AcDbSpline
 70
8
 71
3
 72
8
 73
4
 74
0
 40
0
 40
0
 40
0
 40
0
 40
1
 40
1
 40
1
 40
1
 10
71.750305
 20
69.999711
 30
0.0
 10
71.750305
 20
70.966209
 30
0.0
 10
70.966803
 20
71.749711
 30
0.0
 10
70.000305
 20
71.749711
 30
0.0
  0
SPLINE
  5
23d
100
AcDbEntity
  8
0
 62
7
100
AcDbSpline
 70
8
 71
3
 72
8
 73
4
 74
0
 40
0
 40
0
 40
0
 40
0
 40
1
 40
1
 40
1
 40
1
 10
70.000305
 20
71.749711
 30
0.0
 10
69.033806
 20
71.749711
 30
0.0
 10
68.250304
 20
70.966209
 30
0.0
 10
68.250304
 20
69.999711
 30
0.0
  0
SPLINE
  5
23e
100
AcDbEntity
  8
0
 62
7
100
AcDbSpline
 70
8
 71
3
 72
8
 73
4
 74
0
 40
0
 40
0
 40
0
 40
0
 40
1
 40
1
 40
1
 40
1
 10
68.250304
 20
69.999711
 30
0.0
 10
68.250304
 20
69.033212
 30
0.0
 10
69.033806
 20
68.249710
 30
0.0
 10
70.000305
 20
68.249710
 30
0.0
  0
SPLINE
  5
23f
100
AcDbEntity
  8
0
 62
7
100
AcDbSpline
 70
8
 71
3
 72
8
 73
4
 74
0
 40
0
 40
0
 40
0
 40
0
 40
1
 40
1
 40
1
 40
1
 10
70.000305
 20
68.249710
 30
0.0
 10
70.966803
 20
68.249710
 30
0.0
 10
71.750305
 20
69.033212
 30
0.0
 10
71.750305
 20
69.999711
 30
0.0
  0
LWPOLYLINE
  5
240
100
AcDbEntity
  8
0
 62
7
100
AcDbPolyline
 90
1
 70
1
 10
71.750305
 20
49.999723
 30
0.0
  0
SPLINE
  5
241
100
AcDbEntity
  8
0
 62
7
100
AcDbSpline
 70
8
 71
3
 72
8
 73
4
 74
0
 40
0
 40
0
 40
0
 40
0
 40
1
 40
1
 40
1
 40
1
 10
91.750306
 20
129.999727
 30
0.0
 10
91.750306
 20
130.624942
 30
0.0
 10
91.416758
 20
131.202664
 30
0.0
 10
90.875306
 20
131.515272
 30
0.0
  0
SPLINE
  5
242
100
AcDbEntity
  8
0
 62
7
100
AcDbSpline
 70
8
 71
3
 72
8
 73
4
 74
0
 40
0
 40
0
 40
0
 40
0
 40
1
 40
1
 40
1
 40
1
 10
90.875306
 20
131.515272
 30
0.0
 10
90.333854
 20
131.827879
 30
0.0
 10
89.666757
 20
131.827879
 30
0.0
 10
89.125305
 20
131.515272
 30
0.0
  0
SPLINE
  5
243
100
AcDbEntity
  8
0
 62
7
100
AcDbSpline
 70
8
 71
3
 72
8
 73
4
 74
0
 40
0
 40
0
 40
0
 40
0
 40
1
 40
1
 40
1
 40
1
 10
89.125305
 20
131.515272
 30
0.0
 10
88.583853
 20
131.202664
 30
0.0
 10
88.250305
 20
130.624942
 30
0.0
 10
88.250305
 20
129.999727
 30
0.0
  0
SPLINE
  5
244
100
AcDbEntity
  8
0
 62
7
100
AcDbSpline
 70
8
 71
3
 72
8
 73
4
 74
0
 40
0
 40
0
 40
0
 40
0
 40
1
 40
1
 40
1
 40
1
 10
88.250305
 20
129.999727
 30
0.0
 10
88.250305
 20
129.374512
 30
0.0
 10
88.583853
 20
128.796789
 30
0.0
 10
89.125305
 20
128.484182
 30
0.0
  0
SPLINE
  5
245
100
AcDbEntity
  8
0
 62
7
100
AcDbSpline
 70
8
 71
3
 72
8
 73
4
 74
0
 40
0
 40
0
 40
0
 40
0
 40
1
 40
1
 40
1
 40
1
 10
89.125305
 20
128.484182
 30
0.0
 10
89.666757
 20
128.171574
 30
0.0
 10
90.333854
 20
128.171574
 30
0.0
 10
90.875306
 20
128.484182
 30
0.0
  0
SPLINE
  5
246
100
AcDbEntity
  8
0
 62
7
100
AcDbSpline
 70
8
 71
3
 72
8
 73
4
 74
0
 40
0
 40
0
 40
0
 40
0
 40
1
 40
1
 40
1
 40
1
 10
90.875306
 20
128.484182
 30
0.0
 10
91.416758
 20
128.796789
 30
0.0
 10
91.750306
 20
129.374512
 30
0.0
 10
91.750306
 20
129.999727
 30
0.0
  0
LWPOLYLINE
  5
247
100
AcDbEntity
  8
0
 62
7
100
AcDbPolyline
 90
1
 70
1
 10
71.750305
 20
69.999711
 30
0.0
  0
SPLINE
  5
248
100
AcDbEntity
  8
0
 62
7
100
AcDbSpline
 70
8
 71
3
 72
8
 73
4
 74
0
 40
0
 40
0
 40
0
 40
0
 40
1
 40
1
 40
1
 40
1
 10
111.750307
 20
129.999727
 30
0.0
 10
111.750307
 20
130.966225
 30
0.0
 10
110.966805
 20
131.749727
 30
0.0
 10
110.000306
 20
131.749727
 30
0.0
  0
SPLINE
  5
249
100
AcDbEntity
  8
0
 62
7
100
AcDbSpline
 70
8
 71
3
 72
8
 73
4
 74
0
 40
0
 40
0
 40
0
 40
0
 40
1
 40
1
 40
1
 40
1
 10
110.000306
 20
131.749727
 30
0.0
 10
109.033808
 20
131.749727
 30
0.0
 10
108.250306
 20
130.966225
 30
0.0
 10
108.250306
 20
129.999727
 30
0.0
  0
SPLINE
  5
24a
100
AcDbEntity
  8
0
 62
7
100
AcDbSpline
 70
8
 71
3
 72
8
 73
4
 74
0
 40
0
 40
0
 40
0
 40
0
 40
1
 40
1
 40
1
 40
1
 10
108.250306
 20
129.999727
 30
0.0
 10
108.250306
 20
129.033228
 30
0.0
 10
109.033808
 20
128.249726
 30
0.0
 10
110.000306
 20
128.249726
 30
0.0
  0
SPLINE
  5
24b
100
AcDbEntity
  8
0
 62
7
100
AcDbSpline
 70
8
 71
3
 72
8
 73
4
 74
0
 40
0
 40
0
 40
0
 40
0
 40
1
 40
1
 40
1
 40
1
 10
110.000306
 20
128.249726
 30
0.0
 10
110.966805
 20
128.249726
 30
0.0
 10
111.750307
 20
129.033228
 30
0.0
 10
111.750307
 20
129.999727
 30
0.0
  0
LWPOLYLINE
  5
24c
100
AcDbEntity
  8
0
 62
7
100
AcDbPolyline
 90
1
 70
1
 10
91.750306
 20
129.999727
 30
0.0
  0
SPLINE
  5
24d
100
AcDbEntity
  8
0
 62
7
100
AcDbSpline
 70
8
 71
3
 72
8
 73
4
 74
0
 40
0
 40
0
 40
0
 40
0
 40
1
 40
1
 40
1
 40
1
 10
91.750306
 20
149.999714
 30
0.0
 10
91.750306
 20
150.624929
 30
0.0
 10
91.416758
 20
151.202652
 30
0.0
 10
90.875306
 20
151.515259
 30
0.0
  0
SPLINE
  5
24e
100
AcDbEntity
  8
0
 62
7
100
AcDbSpline
 70
8
 71
3
 72
8
 73
4
 74
0
 40
0
 40
0
 40
0
 40
0
 40
1
 40
1
 40
1
 40
1
 10
90.875306
 20
151.515259
 30
0.0
 10
90.333854
 20
151.827867
 30
0.0
 10
89.666757
 20
151.827867
 30
0.0
 10
89.125305
 20
151.515259
 30
0.0
  0
SPLINE
  5
24f
100
AcDbEntity
  8
0
 62
7
100
AcDbSpline
 70
8
 71
3
 72
8
 73
4
 74
0
 40
0
 40
0
 40
0
 40
0
 40
1
 40
1
 40
1
 40
1
 10
89.125305
 20
151.515259
 30
0.0
 10
88.583853
 20
151.202652
 30
0.0
 10
88.250305
 20
150.624929
 30
0.0
 10
88.250305
 20
149.999714
 30
0.0
  0
SPLINE
  5
250
100
AcDbEntity
  8
0
 62
7
100
AcDbSpline
 70
8
 71
3
 72
8
 73
4
 74
0
 40
0
 40
0
 40
0
 40
0
 40
1
 40
1
 40
1
 40
1
 10
88.250305
 20
149.999714
 30
0.0
 10
88.250305
 20
149.374499
 30
0.0
 10
88.583853
 20
148.796777
 30
0.0
 10
89.125305
 20
148.484169
 30
0.0
  0
SPLINE
  5
251
100
AcDbEntity
  8
0
 62
7
100
AcDbSpline
 70
8
 71
3
 72
8
 73
4
 74
0
 40
0
 40
0
 40
0
 40
0
 40
1
 40
1
 40
1
 40
1
 10
89.125305
 20
148.484169
 30
0.0
 10
89.666757
 20
148.171562
 30
0.0
 10
90.333854
 20
148.171562
 30
0.0
 10
90.875306
 20
148.484169
 30
0.0
  0
SPLINE
  5
252
100
AcDbEntity
  8
0
 62
7
100
AcDbSpline
 70
8
 71
3
 72
8
 73
4
 74
0
 40
0
 40
0
 40
0
 40
0
 40
1
 40
1
 40
1
 40
1
 10
90.875306
 20
148.484169
 30
0.0
 10
91.416758
 20
148.796777
 30
0.0
 10
91.750306
 20
149.374499
 30
0.0
 10
91.750306
 20
149.999714
 30
0.0
  0
LWPOLYLINE
  5
253
100
AcDbEntity
  8
0
 62
7
100
AcDbPolyline
 90
1
 70
1
 10
111.750307
 20
129.999727
 30
0.0
  0
SPLINE
  5
254
100
AcDbEntity
  8
0
 62
7
100
AcDbSpline
 70
8
 71
3
 72
8
 73
4
 74
0
 40
0
 40
0
 40
0
 40
0
 40
1
 40
1
 40
1
 40
1
 10
91.750306
 20
109.999712
 30
0.0
 10
91.750306
 20
110.624927
 30
0.0
 10
91.416758
 20
111.202650
 30
0.0
 10
90.875306
 20
111.515257
 30
0.0
  0
SPLINE
  5
255
100
AcDbEntity
  8
0
 62
7
100
AcDbSpline
 70
8
 71
3
 72
8
 73
4
 74
0
 40
0
 40
0
 40
0
 40
0
 40
1
 40
1
 40
1
 40
1
 10
90.875306
 20
111.515257
 30
0.0
 10
90.333854
 20
111.827865
 30
0.0
 10
89.666757
 20
111.827865
 30
0.0
 10
89.125305
 20
111.515257
 30
0.0
  0
SPLINE
  5
256
100
AcDbEntity
  8
0
 62
7
100
AcDbSpline
 70
8
 71
3
 72
8
 73
4
 74
0
 40
0
 40
0
 40
0
 40
0
 40
1
 40
1
 40
1
 40
1
 10
89.125305
 20
111.515257
 30
0.0
 10
88.583853
 20
111.202650
 30
0.0
 10
88.250305
 20
110.624927
 30
0.0
 10
88.250305
 20
109.999712
 30
0.0
  0
SPLINE
  5
257
100
AcDbEntity
  8
0
 62
7
100
AcDbSpline
 70
8
 71
3
 72
8
 73
4
 74
0
 40
0
 40
0
 40
0
 40
0
 40
1
 40
1
 40
1
 40
1
 10
88.250305
 20
109.999712
 30
0.0
 10
88.250305
 20
109.374497
 30
0.0
 10
88.583853
 20
108.796775
 30
0.0
 10
89.125305
 20
108.484168
 30
0.0
  0
SPLINE
  5
258
100
AcDbEntity
  8
0
 62
7
100
AcDbSpline
 70
8
 71
3
 72
8
 73
4
 74
0
 40
0
 40
0
 40
0
 40
0
 40
1
 40
1
 40
1
 40
1
 10
89.125305
 20
108.484168
 30
0.0
 10
89.666757
 20
108.171560
 30
0.0
 10
90.333854
 20
108.171560
 30
0.0
 10
90.875306
 20
108.484168
 30
0.0
  0
SPLINE
  5
259
100
AcDbEntity
  8
0
 62
7
100
AcDbSpline
 70
8
 71
3
 72
8
 73
4
 74
0
 40
0
 40
0
 40
0
 40
0
 40
1
 40
1
 40
1
 40
1
 10
90.875306
 20
108.484168
 30
0.0
 10
91.416758
 20
108.796775
 30
0.0
 10
91.750306
 20
109.374497
 30
0.0
 10
91.750306
 20
109.999712
 30
0.0
  0
LWPOLYLINE
  5
25a
100
AcDbEntity
  8
0
 62
7
100
AcDbPolyline
 90
1
 70
1
 10
91.750306
 20
149.999714
 30
0.0
  0
SPLINE
  5
25b
100
AcDbEntity
  8
0
 62
7
100
AcDbSpline
 70
8
 71
3
 72
8
 73
4
 74
0
 40
0
 40
0
 40
0
 40
0
 40
1
 40
1
 40
1
 40
1
 10
151.750309
 20
129.999727
 30
0.0
 10
151.750309
 20
130.966225
 30
0.0
 10
150.966807
 20
131.749727
 30
0.0
 10
150.000308
 20
131.749727
 30
0.0
  0
SPLINE
  5
25c
100
AcDbEntity
  8
0
 62
7
100
AcDbSpline
 70
8
 71
3
 72
8
 73
4
 74
0
 40
0
 40
0
 40
0
 40
0
 40
1
 40
1
 40
1
 40
1
 10
150.000308
 20
131.749727
 30
0.0
 10
149.033810
 20
131.749727
 30
0.0
 10
148.250308
 20
130.966225
 30
0.0
 10
148.250308
 20
129.999727
 30
0.0
  0
SPLINE
  5
25d
100
AcDbEntity
  8
0
 62
7
100
AcDbSpline
 70
8
 71
3
 72
8
 73
4
 74
0
 40
0
 40
0
 40
0
 40
0
 40
1
 40
1
 40
1
 40
1
 10
148.250308
 20
129.999727
 30
0.0
 10
148.250308
 20
129.033228
 30
0.0
 10
149.033810
 20
128.249726
 30
0.0
 10
150.000308
 20
128.249726
 30
0.0
  0
SPLINE
  5
25e
100
AcDbEntity
  8
0
 62
7
100
AcDbSpline
 70
8
 71
3
 72
8
 73
4
 74
0
 40
0
 40
0
 40
0
 40
0
 40
1
 40
1
 40
1
 40
1
 10
150.000308
 20
128.249726
 30
0.0
 10
150.966807
 20
128.249726
 30
0.0
 10
151.750309
 20
129.033228
 30
0.0
 10
151.750309
 20
129.999727
 30
0.0
  0
LWPOLYLINE
  5
25f
100
AcDbEntity
  8
0
 62
7
100
AcDbPolyline
 90
1
 70
1
 10
91.750306
 20
109.999712
 30
0.0
  0
SPLINE
  5
260
100
AcDbEntity
  8
0
 62
7
100
AcDbSpline
 70
8
 71
3
 72
8
 73
4
 74
0
 40
0
 40
0
 40
0
 40
0
 40
1
 40
1
 40
1
 40
1
 10
31.750293
 20
69.999711
 30
0.0
 10
31.747749
 20
70.964404
 30
0.0
 10
30.964996
 20
71.745096
 30
0.0
 10
30.000299
 20
71.745096
 30
0.0
  0
SPLINE
  5
261
100
AcDbEntity
  8
0
 62
7
100
AcDbSpline
 70
8
 71
3
 72
8
 73
4
 74
0
 40
0
 40
0
 40
0
 40
0
 40
1
 40
1
 40
1
 40
1
 10
30.000299
 20
71.745096
 30
0.0
 10
29.035602
 20
71.745096
 30
0.0
 10
28.252849
 20
70.964404
 30
0.0
 10
28.250305
 20
69.999711
 30
0.0
  0
SPLINE
  5
262
100
AcDbEntity
  8
0
 62
7
100
AcDbSpline
 70
8
 71
3
 72
8
 73
4
 74
0
 40
0
 40
0
 40
0
 40
0
 40
1
 40
1
 40
1
 40
1
 10
28.250305
 20
69.999711
 30
0.0
 10
28.252849
 20
69.035018
 30
0.0
 10
29.035602
 20
68.254326
 30
0.0
 10
30.000299
 20
68.254326
 30
0.0
  0
SPLINE
  5
263
100
AcDbEntity
  8
0
 62
7
100
AcDbSpline
 70
8
 71
3
 72
8
 73
4
 74
0
 40
0
 40
0
 40
0
 40
0
 40
1
 40
1
 40
1
 40
1
 10
30.000299
 20
68.254326
 30
0.0
 10
30.964996
 20
68.254326
 30
0.0
 10
31.747749
 20
69.035018
 30
0.0
 10
31.750293
 20
69.999711
 30
0.0
  0
LWPOLYLINE
  5
264
100
AcDbEntity
  8
0
 62
7
100
AcDbPolyline
 90
1
 70
1
 10
151.750309
 20
129.999727
 30
0.0
  0
SPLINE
  5
265
100
AcDbEntity
  8
0
 62
7
100
AcDbSpline
 70
8
 71
3
 72
8
 73
4
 74
0
 40
0
 40
0
 40
0
 40
0
 40
1
 40
1
 40
1
 40
1
 10
51.750302
 20
49.999723
 30
0.0
 10
51.749382
 20
50.965570
 30
0.0
 10
50.966150
 20
51.748056
 30
0.0
 10
50.000303
 20
51.748056
 30
0.0
  0
SPLINE
  5
266
100
AcDbEntity
  8
0
 62
7
100
AcDbSpline
 70
8
 71
3
 72
8
 73
4
 74
0
 40
0
 40
0
 40
0
 40
0
 40
1
 40
1
 40
1
 40
1
 10
50.000303
 20
51.748056
 30
0.0
 10
49.034455
 20
51.748056
 30
0.0
 10
48.251223
 20
50.965570
 30
0.0
 10
48.250303
 20
49.999723
 30
0.0
  0
SPLINE
  5
267
100
AcDbEntity
  8
0
 62
7
100
AcDbSpline
 70
8
 71
3
 72
8
 73
4
 74
0
 40
0
 40
0
 40
0
 40
0
 40
1
 40
1
 40
1
 40
1
 10
48.250303
 20
49.999723
 30
0.0
 10
48.251223
 20
49.033876
 30
0.0
 10
49.034455
 20
48.251390
 30
0.0
 10
50.000303
 20
48.251390
 30
0.0
  0
SPLINE
  5
268
100
AcDbEntity
  8
0
 62
7
100
AcDbSpline
 70
8
 71
3
 72
8
 73
4
 74
0
 40
0
 40
0
 40
0
 40
0
 40
1
 40
1
 40
1
 40
1
 10
50.000303
 20
48.251390
 30
0.0
 10
50.966150
 20
48.251390
 30
0.0
 10
51.749382
 20
49.033876
 30
0.0
 10
51.750302
 20
49.999723
 30
0.0
  0
LWPOLYLINE
  5
269
100
AcDbEntity
  8
0
 62
7
100
AcDbPolyline
 90
1
 70
1
 10
31.750293
 20
69.999711
 30
0.0
  0
SPLINE
  5
26a
100
AcDbEntity
  8
0
 62
7
100
AcDbSpline
 70
8
 71
3
 72
8
 73
4
 74
0
 40
0
 40
0
 40
0
 40
0
 40
1
 40
1
 40
1
 40
1
 10
131.750308
 20
49.999723
 30
0.0
 10
131.750308
 20
50.624938
 30
0.0
 10
131.416760
 20
51.202661
 30
0.0
 10
130.875308
 20
51.515268
 30
0.0
  0
SPLINE
  5
26b
100
AcDbEntity
  8
0
 62
7
100
AcDbSpline
 70
8
 71
3
 72
8
 73
4
 74
0
 40
0
 40
0
 40
0
 40
0
 40
1
 40
1
 40
1
 40
1
 10
130.875308
 20
51.515268
 30
0.0
 10
130.333856
 20
51.827876
 30
0.0
 10
129.666759
 20
51.827876
 30
0.0
 10
129.125307
 20
51.515268
 30
0.0
  0
SPLINE
  5
26c
100
AcDbEntity
  8
0
 62
7
100
AcDbSpline
 70
8
 71
3
 72
8
 73
4
 74
0
 40
0
 40
0
 40
0
 40
0
 40
1
 40
1
 40
1
 40
1
 10
129.125307
 20
51.515268
 30
0.0
 10
128.583855
 20
51.202661
 30
0.0
 10
128.250307
 20
50.624938
 30
0.0
 10
128.250307
 20
49.999723
 30
0.0
  0
SPLINE
  5
26d
100
AcDbEntity
  8
0
 62
7
100
AcDbSpline
 70
8
 71
3
 72
8
 73
4
 74
0
 40
0
 40
0
 40
0
 40
0
 40
1
 40
1
 40
1
 40
1
 10
128.250307
 20
49.999723
 30
0.0
 10
128.250307
 20
49.374508
 30
0.0
 10
128.583855
 20
48.796786
 30
0.0
 10
129.125307
 20
48.484178
 30
0.0
  0
SPLINE
  5
26e
100
AcDbEntity
  8
0
 62
7
100
AcDbSpline
 70
8
 71
3
 72
8
 73
4
 74
0
 40
0
 40
0
 40
0
 40
0
 40
1
 40
1
 40
1
 40
1
 10
129.125307
 20
48.484178
 30
0.0
 10
129.666759
 20
48.171571
 30
0.0
 10
130.333856
 20
48.171571
 30
0.0
 10
130.875308
 20
48.484178
 30
0.0
  0
SPLINE
  5
26f
100
AcDbEntity
  8
0
 62
7
100
AcDbSpline
 70
8
 71
3
 72
8
 73
4
 74
0
 40
0
 40
0
 40
0
 40
0
 40
1
 40
1
 40
1
 40
1
 10
130.875308
 20
48.484178
 30
0.0
 10
131.416760
 20
48.796786
 30
0.0
 10
131.750308
 20
49.374508
 30
0.0
 10
131.750308
 20
49.999723
 30
0.0
  0
LWPOLYLINE
  5
270
100
AcDbEntity
  8
0
 62
7
100
AcDbPolyline
 90
1
 70
1
 10
51.750302
 20
49.999723
 30
0.0
  0
SPLINE
  5
271
100
AcDbEntity
  8
0
 62
7
100
AcDbSpline
 70
8
 71
3
 72
8
 73
4
 74
0
 40
0
 40
0
 40
0
 40
0
 40
1
 40
1
 40
1
 40
1
 10
151.750309
 20
29.999709
 30
0.0
 10
151.750309
 20
30.966208
 30
0.0
 10
150.966807
 20
31.749709
 30
0.0
 10
150.000308
 20
31.749709
 30
0.0
  0
SPLINE
  5
272
100
AcDbEntity
  8
0
 62
7
100
AcDbSpline
 70
8
 71
3
 72
8
 73
4
 74
0
 40
0
 40
0
 40
0
 40
0
 40
1
 40
1
 40
1
 40
1
 10
150.000308
 20
31.749709
 30
0.0
 10
149.033810
 20
31.749709
 30
0.0
 10
148.250308
 20
30.966208
 30
0.0
 10
148.250308
 20
29.999709
 30
0.0
  0
SPLINE
  5
273
100
AcDbEntity
  8
0
 62
7
100
AcDbSpline
 70
8
 71
3
 72
8
 73
4
 74
0
 40
0
 40
0
 40
0
 40
0
 40
1
 40
1
 40
1
 40
1
 10
148.250308
 20
29.999709
 30
0.0
 10
148.250308
 20
29.033210
 30
0.0
 10
149.033810
 20
28.249709
 30
0.0
 10
150.000308
 20
28.249709
 30
0.0
  0
SPLINE
  5
274
100
AcDbEntity
  8
0
 62
7
100
AcDbSpline
 70
8
 71
3
 72
8
 73
4
 74
0
 40
0
 40
0
 40
0
 40
0
 40
1
 40
1
 40
1
 40
1
 10
150.000308
 20
28.249709
 30
0.0
 10
150.966807
 20
28.249709
 30
0.0
 10
151.750309
 20
29.033210
 30
0.0
 10
151.750309
 20
29.999709
 30
0.0
  0
LWPOLYLINE
  5
275
100
AcDbEntity
  8
0
 62
7
100
AcDbPolyline
 90
1
 70
1
 10
131.750308
 20
49.999723
 30
0.0
  0
SPLINE
  5
276
100
AcDbEntity
  8
0
 62
7
100
AcDbSpline
 70
8
 71
3
 72
8
 73
4
 74
0
 40
0
 40
0
 40
0
 40
0
 40
1
 40
1
 40
1
 40
1
 10
131.750308
 20
69.999711
 30
0.0
 10
131.750308
 20
70.624926
 30
0.0
 10
131.416760
 20
71.202648
 30
0.0
 10
130.875308
 20
71.515256
 30
0.0
  0
SPLINE
  5
277
100
AcDbEntity
  8
0
 62
7
100
AcDbSpline
 70
8
 71
3
 72
8
 73
4
 74
0
 40
0
 40
0
 40
0
 40
0
 40
1
 40
1
 40
1
 40
1
 10
130.875308
 20
71.515256
 30
0.0
 10
130.333856
 20
71.827863
 30
0.0
 10
129.666759
 20
71.827863
 30
0.0
 10
129.125307
 20
71.515256
 30
0.0
  0
SPLINE
  5
278
100
AcDbEntity
  8
0
 62
7
100
AcDbSpline
 70
8
 71
3
 72
8
 73
4
 74
0
 40
0
 40
0
 40
0
 40
0
 40
1
 40
1
 40
1
 40
1
 10
129.125307
 20
71.515256
 30
0.0
 10
128.583855
 20
71.202648
 30
0.0
 10
128.250307
 20
70.624926
 30
0.0
 10
128.250307
 20
69.999711
 30
0.0
  0
SPLINE
  5
279
100
AcDbEntity
  8
0
 62
7
100
AcDbSpline
 70
8
 71
3
 72
8
 73
4
 74
0
 40
0
 40
0
 40
0
 40
0
 40
1
 40
1
 40
1
 40
1
 10
128.250307
 20
69.999711
 30
0.0
 10
128.250307
 20
69.374496
 30
0.0
 10
128.583855
 20
68.796773
 30
0.0
 10
129.125307
 20
68.484166
 30
0.0
  0
SPLINE
  5
27a
100
AcDbEntity
  8
0
 62
7
100
AcDbSpline
 70
8
 71
3
 72
8
 73
4
 74
0
 40
0
 40
0
 40
0
 40
0
 40
1
 40
1
 40
1
 40
1
 10
129.125307
 20
68.484166
 30
0.0
 10
129.666759
 20
68.171558
 30
0.0
 10
130.333856
 20
68.171558
 30
0.0
 10
130.875308
 20
68.484166
 30
0.0
  0
SPLINE
  5
27b
100
AcDbEntity
  8
0
 62
7
100
AcDbSpline
 70
8
 71
3
 72
8
 73
4
 74
0
 40
0
 40
0
 40
0
 40
0
 40
1
 40
1
 40
1
 40
1
 10
130.875308
 20
68.484166
 30
0.0
 10
131.416760
 20
68.796773
 30
0.0
 10
131.750308
 20
69.374496
 30
0.0
 10
131.750308
 20
69.999711
 30
0.0
  0
LWPOLYLINE
  5
27c
100
AcDbEntity
  8
0
 62
7
100
AcDbPolyline
 90
1
 70
1
 10
151.750309
 20
29.999709
 30
0.0
  0
SPLINE
  5
27d
100
AcDbEntity
  8
0
 62
7
100
AcDbSpline
 70
8
 71
3
 72
8
 73
4
 74
0
 40
0
 40
0
 40
0
 40
0
 40
1
 40
1
 40
1
 40
1
 10
291.750318
 20
9.999721
 30
0.0
 10
291.747746
 20
10.964395
 30
0.0
 10
290.965001
 20
11.745057
 30
0.0
 10
290.000324
 20
11.745057
 30
0.0
  0
SPLINE
  5
27e
100
AcDbEntity
  8
0
 62
7
100
AcDbSpline
 70
8
 71
3
 72
8
 73
4
 74
0
 40
0
 40
0
 40
0
 40
0
 40
1
 40
1
 40
1
 40
1
 10
290.000324
 20
11.745057
 30
0.0
 10
289.035647
 20
11.745057
 30
0.0
 10
288.252901
 20
10.964395
 30
0.0
 10
288.250330
 20
9.999721
 30
0.0
  0
SPLINE
  5
27f
100
AcDbEntity
  8
0
 62
7
100
AcDbSpline
 70
8
 71
3
 72
8
 73
4
 74
0
 40
0
 40
0
 40
0
 40
0
 40
1
 40
1
 40
1
 40
1
 10
288.250330
 20
9.999721
 30
0.0
 10
288.252901
 20
9.035048
 30
0.0
 10
289.035647
 20
8.254386
 30
0.0
 10
290.000324
 20
8.254386
 30
0.0
  0
SPLINE
  5
280
100
AcDbEntity
  8
0
 62
7
100
AcDbSpline
 70
8
 71
3
 72
8
 73
4
 74
0
 40
0
 40
0
 40
0
 40
0
 40
1
 40
1
 40
1
 40
1
 10
290.000324
 20
8.254386
 30
0.0
 10
290.965001
 20
8.254386
 30
0.0
 10
291.747746
 20
9.035048
 30
0.0
 10
291.750318
 20
9.999721
 30
0.0
  0
LWPOLYLINE
  5
281
100
AcDbEntity
  8
0
 62
7
100
AcDbPolyline
 90
1
 70
1
 10
131.750308
 20
69.999711
 30
0.0
  0
SPLINE
  5
282
100
AcDbEntity
  8
0
 62
7
100
AcDbSpline
 70
8
 71
3
 72
8
 73
4
 74
0
 40
0
 40
0
 40
0
 40
0
 40
1
 40
1
 40
1
 40
1
 10
271.750330
 20
109.999712
 30
0.0
 10
271.750330
 20
110.624930
 30
0.0
 10
271.416780
 20
111.202654
 30
0.0
 10
270.875326
 20
111.515263
 30
0.0
  0
SPLINE
  5
283
100
AcDbEntity
  8
0
 62
7
100
AcDbSpline
 70
8
 71
3
 72
8
 73
4
 74
0
 40
0
 40
0
 40
0
 40
0
 40
1
 40
1
 40
1
 40
1
 10
270.875326
 20
111.515263
 30
0.0
 10
270.333872
 20
111.827872
 30
0.0
 10
269.666773
 20
111.827872
 30
0.0
 10
269.125319
 20
111.515263
 30
0.0
  0
SPLINE
  5
284
100
AcDbEntity
  8
0
 62
7
100
AcDbSpline
 70
8
 71
3
 72
8
 73
4
 74
0
 40
0
 40
0
 40
0
 40
0
 40
1
 40
1
 40
1
 40
1
 10
269.125319
 20
111.515263
 30
0.0
 10
268.583865
 20
111.202654
 30
0.0
 10
268.250316
 20
110.624930
 30
0.0
 10
268.250316
 20
109.999712
 30
0.0
  0
SPLINE
  5
285
100
AcDbEntity
  8
0
 62
7
100
AcDbSpline
 70
8
 71
3
 72
8
 73
4
 74
0
 40
0
 40
0
 40
0
 40
0
 40
1
 40
1
 40
1
 40
1
 10
268.250316
 20
109.999712
 30
0.0
 10
268.250316
 20
109.374495
 30
0.0
 10
268.583865
 20
108.796770
 30
0.0
 10
269.125319
 20
108.484162
 30
0.0
  0
SPLINE
  5
286
100
AcDbEntity
  8
0
 62
7
100
AcDbSpline
 70
8
 71
3
 72
8
 73
4
 74
0
 40
0
 40
0
 40
0
 40
0
 40
1
 40
1
 40
1
 40
1
 10
269.125319
 20
108.484162
 30
0.0
 10
269.666773
 20
108.171553
 30
0.0
 10
270.333872
 20
108.171553
 30
0.0
 10
270.875326
 20
108.484162
 30
0.0
  0
SPLINE
  5
287
100
AcDbEntity
  8
0
 62
7
100
AcDbSpline
 70
8
 71
3
 72
8
 73
4
 74
0
 40
0
 40
0
 40
0
 40
0
 40
1
 40
1
 40
1
 40
1
 10
270.875326
 20
108.484162
 30
0.0
 10
271.416780
 20
108.796770
 30
0.0
 10
271.750330
 20
109.374495
 30
0.0
 10
271.750330
 20
109.999712
 30
0.0
  0
LWPOLYLINE
  5
288
100
AcDbEntity
  8
0
 62
7
100
AcDbPolyline
 90
1
 70
1
 10
291.750318
 20
9.999721
 30
0.0
  0
SPLINE
  5
289
100
AcDbEntity
  8
0
 62
7
100
AcDbSpline
 70
8
 71
3
 72
8
 73
4
 74
0
 40
0
 40
0
 40
0
 40
0
 40
1
 40
1
 40
1
 40
1
 10
191.750311
 20
109.999712
 30
0.0
 10
191.750311
 20
110.624927
 30
0.0
 10
191.416762
 20
111.202650
 30
0.0
 10
190.875310
 20
111.515257
 30
0.0
  0
SPLINE
  5
28a
100
AcDbEntity
  8
0
 62
7
100
AcDbSpline
 70
8
 71
3
 72
8
 73
4
 74
0
 40
0
 40
0
 40
0
 40
0
 40
1
 40
1
 40
1
 40
1
 10
190.875310
 20
111.515257
 30
0.0
 10
190.333858
 20
111.827865
 30
0.0
 10
189.666762
 20
111.827865
 30
0.0
 10
189.125310
 20
111.515257
 30
0.0
  0
SPLINE
  5
28b
100
AcDbEntity
  8
0
 62
7
100
AcDbSpline
 70
8
 71
3
 72
8
 73
4
 74
0
 40
0
 40
0
 40
0
 40
0
 40
1
 40
1
 40
1
 40
1
 10
189.125310
 20
111.515257
 30
0.0
 10
188.583858
 20
111.202650
 30
0.0
 10
188.250309
 20
110.624927
 30
0.0
 10
188.250309
 20
109.999712
 30
0.0
  0
SPLINE
  5
28c
100
AcDbEntity
  8
0
 62
7
100
AcDbSpline
 70
8
 71
3
 72
8
 73
4
 74
0
 40
0
 40
0
 40
0
 40
0
 40
1
 40
1
 40
1
 40
1
 10
188.250309
 20
109.999712
 30
0.0
 10
188.250309
 20
109.374497
 30
0.0
 10
188.583858
 20
108.796775
 30
0.0
 10
189.125310
 20
108.484168
 30
0.0
  0
SPLINE
  5
28d
100
AcDbEntity
  8
0
 62
7
100
AcDbSpline
 70
8
 71
3
 72
8
 73
4
 74
0
 40
0
 40
0
 40
0
 40
0
 40
1
 40
1
 40
1
 40
1
 10
189.125310
 20
108.484168
 30
0.0
 10
189.666762
 20
108.171560
 30
0.0
 10
190.333858
 20
108.171560
 30
0.0
 10
190.875310
 20
108.484168
 30
0.0
  0
SPLINE
  5
28e
100
AcDbEntity
  8
0
 62
7
100
AcDbSpline
 70
8
 71
3
 72
8
 73
4
 74
0
 40
0
 40
0
 40
0
 40
0
 40
1
 40
1
 40
1
 40
1
 10
190.875310
 20
108.484168
 30
0.0
 10
191.416762
 20
108.796775
 30
0.0
 10
191.750311
 20
109.374497
 30
0.0
 10
191.750311
 20
109.999712
 30
0.0
  0
LWPOLYLINE
  5
28f
100
AcDbEntity
  8
0
 62
7
100
AcDbPolyline
 90
1
 70
1
 10
271.750330
 20
109.999712
 30
0.0
  0
SPLINE
  5
290
100
AcDbEntity
  8
0
 62
7
100
AcDbSpline
 70
8
 71
3
 72
8
 73
4
 74
0
 40
0
 40
0
 40
0
 40
0
 40
1
 40
1
 40
1
 40
1
 10
191.750311
 20
149.999714
 30
0.0
 10
191.750311
 20
150.624929
 30
0.0
 10
191.416762
 20
151.202652
 30
0.0
 10
190.875310
 20
151.515259
 30
0.0
  0
SPLINE
  5
291
100
AcDbEntity
  8
0
 62
7
100
AcDbSpline
 70
8
 71
3
 72
8
 73
4
 74
0
 40
0
 40
0
 40
0
 40
0
 40
1
 40
1
 40
1
 40
1
 10
190.875310
 20
151.515259
 30
0.0
 10
190.333858
 20
151.827867
 30
0.0
 10
189.666762
 20
151.827867
 30
0.0
 10
189.125310
 20
151.515259
 30
0.0
  0
SPLINE
  5
292
100
AcDbEntity
  8
0
 62
7
100
AcDbSpline
 70
8
 71
3
 72
8
 73
4
 74
0
 40
0
 40
0
 40
0
 40
0
 40
1
 40
1
 40
1
 40
1
 10
189.125310
 20
151.515259
 30
0.0
 10
188.583858
 20
151.202652
 30
0.0
 10
188.250309
 20
150.624929
 30
0.0
 10
188.250309
 20
149.999714
 30
0.0
  0
SPLINE
  5
293
100
AcDbEntity
  8
0
 62
7
100
AcDbSpline
 70
8
 71
3
 72
8
 73
4
 74
0
 40
0
 40
0
 40
0
 40
0
 40
1
 40
1
 40
1
 40
1
 10
188.250309
 20
149.999714
 30
0.0
 10
188.250309
 20
149.374499
 30
0.0
 10
188.583858
 20
148.796777
 30
0.0
 10
189.125310
 20
148.484169
 30
0.0
  0
SPLINE
  5
294
100
AcDbEntity
  8
0
 62
7
100
AcDbSpline
 70
8
 71
3
 72
8
 73
4
 74
0
 40
0
 40
0
 40
0
 40
0
 40
1
 40
1
 40
1
 40
1
 10
189.125310
 20
148.484169
 30
0.0
 10
189.666762
 20
148.171562
 30
0.0
 10
190.333858
 20
148.171562
 30
0.0
 10
190.875310
 20
148.484169
 30
0.0
  0
SPLINE
  5
295
100
AcDbEntity
  8
0
 62
7
100
AcDbSpline
 70
8
 71
3
 72
8
 73
4
 74
0
 40
0
 40
0
 40
0
 40
0
 40
1
 40
1
 40
1
 40
1
 10
190.875310
 20
148.484169
 30
0.0
 10
191.416762
 20
148.796777
 30
0.0
 10
191.750311
 20
149.374499
 30
0.0
 10
191.750311
 20
149.999714
 30
0.0
  0
LWPOLYLINE
  5
296
100
AcDbEntity
  8
0
 62
7
100
AcDbPolyline
 90
1
 70
1
 10
191.750311
 20
109.999712
 30
0.0
  0
SPLINE
  5
297
100
AcDbEntity
  8
0
 62
7
100
AcDbSpline
 70
8
 71
3
 72
8
 73
4
 74
0
 40
0
 40
0
 40
0
 40
0
 40
1
 40
1
 40
1
 40
1
 10
211.750311
 20
129.999727
 30
0.0
 10
211.749318
 20
130.965522
 30
0.0
 10
210.966108
 20
131.747926
 30
0.0
 10
210.000312
 20
131.747926
 30
0.0
  0
SPLINE
  5
298
100
AcDbEntity
  8
0
 62
7
100
AcDbSpline
 70
8
 71
3
 72
8
 73
4
 74
0
 40
0
 40
0
 40
0
 40
0
 40
1
 40
1
 40
1
 40
1
 10
210.000312
 20
131.747926
 30
0.0
 10
209.034517
 20
131.747926
 30
0.0
 10
208.251307
 20
130.965522
 30
0.0
 10
208.250313
 20
129.999727
 30
0.0
  0
SPLINE
  5
299
100
AcDbEntity
  8
0
 62
7
100
AcDbSpline
 70
8
 71
3
 72
8
 73
4
 74
0
 40
0
 40
0
 40
0
 40
0
 40
1
 40
1
 40
1
 40
1
 10
208.250313
 20
129.999727
 30
0.0
 10
208.251307
 20
129.033932
 30
0.0
 10
209.034517
 20
128.251527
 30
0.0
 10
210.000312
 20
128.251527
 30
0.0
  0
SPLINE
  5
29a
100
AcDbEntity
  8
0
 62
7
100
AcDbSpline
 70
8
 71
3
 72
8
 73
4
 74
0
 40
0
 40
0
 40
0
 40
0
 40
1
 40
1
 40
1
 40
1
 10
210.000312
 20
128.251527
 30
0.0
 10
210.966108
 20
128.251527
 30
0.0
 10
211.749318
 20
129.033932
 30
0.0
 10
211.750311
 20
129.999727
 30
0.0
  0
LWPOLYLINE
  5
29b
100
AcDbEntity
  8
0
 62
7
100
AcDbPolyline
 90
1
 70
1
 10
191.750311
 20
149.999714
 30
0.0
  0
SPLINE
  5
29c
100
AcDbEntity
  8
0
 62
7
100
AcDbSpline
 70
8
 71
3
 72
8
 73
4
 74
0
 40
0
 40
0
 40
0
 40
0
 40
1
 40
1
 40
1
 40
1
 10
291.750318
 20
49.999723
 30
0.0
 10
291.747746
 20
50.964397
 30
0.0
 10
290.965001
 20
51.745058
 30
0.0
 10
290.000324
 20
51.745058
 30
0.0
  0
SPLINE
  5
29d
100
AcDbEntity
  8
0
 62
7
100
AcDbSpline
 70
8
 71
3
 72
8
 73
4
 74
0
 40
0
 40
0
 40
0
 40
0
 40
1
 40
1
 40
1
 40
1
 10
290.000324
 20
51.745058
 30
0.0
 10
289.035647
 20
51.745058
 30
0.0
 10
288.252901
 20
50.964397
 30
0.0
 10
288.250330
 20
49.999723
 30
0.0
  0
SPLINE
  5
29e
100
AcDbEntity
  8
0
 62
7
100
AcDbSpline
 70
8
 71
3
 72
8
 73
4
 74
0
 40
0
 40
0
 40
0
 40
0
 40
1
 40
1
 40
1
 40
1
 10
288.250330
 20
49.999723
 30
0.0
 10
288.252901
 20
49.035049
 30
0.0
 10
289.035647
 20
48.254388
 30
0.0
 10
290.000324
 20
48.254388
 30
0.0
  0
SPLINE
  5
29f
100
AcDbEntity
  8
0
 62
7
100
AcDbSpline
 70
8
 71
3
 72
8
 73
4
 74
0
 40
0
 40
0
 40
0
 40
0
 40
1
 40
1
 40
1
 40
1
 10
290.000324
 20
48.254388
 30
0.0
 10
290.965001
 20
48.254388
 30
0.0
 10
291.747746
 20
49.035049
 30
0.0
 10
291.750318
 20
49.999723
 30
0.0
  0
LWPOLYLINE
  5
2a0
100
AcDbEntity
  8
0
 62
7
100
AcDbPolyline
 90
1
 70
1
 10
211.750311
 20
129.999727
 30
0.0
  0
SPLINE
  5
2a1
100
AcDbEntity
  8
0
 62
7
100
AcDbSpline
 70
8
 71
3
 72
8
 73
4
 74
0
 40
0
 40
0
 40
0
 40
0
 40
1
 40
1
 40
1
 40
1
 10
231.750312
 20
69.999711
 30
0.0
 10
231.749392
 20
70.965558
 30
0.0
 10
230.966161
 20
71.748044
 30
0.0
 10
230.000313
 20
71.748044
 30
0.0
  0
SPLINE
  5
2a2
100
AcDbEntity
  8
0
 62
7
100
AcDbSpline
 70
8
 71
3
 72
8
 73
4
 74
0
 40
0
 40
0
 40
0
 40
0
 40
1
 40
1
 40
1
 40
1
 10
230.000313
 20
71.748044
 30
0.0
 10
229.034466
 20
71.748044
 30
0.0
 10
228.251234
 20
70.965558
 30
0.0
 10
228.250314
 20
69.999711
 30
0.0
  0
SPLINE
  5
2a3
100
AcDbEntity
  8
0
 62
7
100
AcDbSpline
 70
8
 71
3
 72
8
 73
4
 74
0
 40
0
 40
0
 40
0
 40
0
 40
1
 40
1
 40
1
 40
1
 10
228.250314
 20
69.999711
 30
0.0
 10
228.251234
 20
69.033864
 30
0.0
 10
229.034466
 20
68.251377
 30
0.0
 10
230.000313
 20
68.251377
 30
0.0
  0
SPLINE
  5
2a4
100
AcDbEntity
  8
0
 62
7
100
AcDbSpline
 70
8
 71
3
 72
8
 73
4
 74
0
 40
0
 40
0
 40
0
 40
0
 40
1
 40
1
 40
1
 40
1
 10
230.000313
 20
68.251377
 30
0.0
 10
230.966161
 20
68.251377
 30
0.0
 10
231.749392
 20
69.033864
 30
0.0
 10
231.750312
 20
69.999711
 30
0.0
  0
LWPOLYLINE
  5
2a5
100
AcDbEntity
  8
0
 62
7
100
AcDbPolyline
 90
1
 70
1
 10
291.750318
 20
49.999723
 30
0.0
  0
SPLINE
  5
2a6
100
AcDbEntity
  8
0
 62
7
100
AcDbSpline
 70
8
 71
3
 72
8
 73
4
 74
0
 40
0
 40
0
 40
0
 40
0
 40
1
 40
1
 40
1
 40
1
 10
231.750312
 20
49.999723
 30
0.0
 10
231.749392
 20
50.965570
 30
0.0
 10
230.966161
 20
51.748056
 30
0.0
 10
230.000313
 20
51.748056
 30
0.0
  0
SPLINE
  5
2a7
100
AcDbEntity
  8
0
 62
7
100
AcDbSpline
 70
8
 71
3
 72
8
 73
4
 74
0
 40
0
 40
0
 40
0
 40
0
 40
1
 40
1
 40
1
 40
1
 10
230.000313
 20
51.748056
 30
0.0
 10
229.034466
 20
51.748056
 30
0.0
 10
228.251234
 20
50.965570
 30
0.0
 10
228.250314
 20
49.999723
 30
0.0
  0
SPLINE
  5
2a8
100
AcDbEntity
  8
0
 62
7
100
AcDbSpline
 70
8
 71
3
 72
8
 73
4
 74
0
 40
0
 40
0
 40
0
 40
0
 40
1
 40
1
 40
1
 40
1
 10
228.250314
 20
49.999723
 30
0.0
 10
228.251234
 20
49.033876
 30
0.0
 10
229.034466
 20
48.251390
 30
0.0
 10
230.000313
 20
48.251390
 30
0.0
  0
SPLINE
  5
2a9
100
AcDbEntity
  8
0
 62
7
100
AcDbSpline
 70
8
 71
3
 72
8
 73
4
 74
0
 40
0
 40
0
 40
0
 40
0
 40
1
 40
1
 40
1
 40
1
 10
230.000313
 20
48.251390
 30
0.0
 10
230.966161
 20
48.251390
 30
0.0
 10
231.749392
 20
49.033876
 30
0.0
 10
231.750312
 20
49.999723
 30
0.0
  0
LWPOLYLINE
  5
2aa
100
AcDbEntity
  8
0
 62
7
100
AcDbPolyline
 90
1
 70
1
 10
231.750312
 20
69.999711
 30
0.0
  0
SPLINE
  5
2ab
100
AcDbEntity
  8
0
 62
7
100
AcDbSpline
 70
8
 71
3
 72
8
 73
4
 74
0
 40
0
 40
0
 40
0
 40
0
 40
1
 40
1
 40
1
 40
1
 10
251.750316
 20
89.999725
 30
0.0
 10
251.750316
 20
90.624940
 30
0.0
 10
251.416768
 20
91.202662
 30
0.0
 10
250.875316
 20
91.515270
 30
0.0
  0
SPLINE
  5
2ac
100
AcDbEntity
  8
0
 62
7
100
AcDbSpline
 70
8
 71
3
 72
8
 73
4
 74
0
 40
0
 40
0
 40
0
 40
0
 40
1
 40
1
 40
1
 40
1
 10
250.875316
 20
91.515270
 30
0.0
 10
250.333864
 20
91.827877
 30
0.0
 10
249.666767
 20
91.827877
 30
0.0
 10
249.125315
 20
91.515270
 30
0.0
  0
SPLINE
  5
2ad
100
AcDbEntity
  8
0
 62
7
100
AcDbSpline
 70
8
 71
3
 72
8
 73
4
 74
0
 40
0
 40
0
 40
0
 40
0
 40
1
 40
1
 40
1
 40
1
 10
249.125315
 20
91.515270
 30
0.0
 10
248.583863
 20
91.202662
 30
0.0
 10
248.250315
 20
90.624940
 30
0.0
 10
248.250315
 20
89.999725
 30
0.0
  0
SPLINE
  5
2ae
100
AcDbEntity
  8
0
 62
7
100
AcDbSpline
 70
8
 71
3
 72
8
 73
4
 74
0
 40
0
 40
0
 40
0
 40
0
 40
1
 40
1
 40
1
 40
1
 10
248.250315
 20
89.999725
 30
0.0
 10
248.250315
 20
89.374510
 30
0.0
 10
248.583863
 20
88.796787
 30
0.0
 10
249.125315
 20
88.484180
 30
0.0
  0
SPLINE
  5
2af
100
AcDbEntity
  8
0
 62
7
100
AcDbSpline
 70
8
 71
3
 72
8
 73
4
 74
0
 40
0
 40
0
 40
0
 40
0
 40
1
 40
1
 40
1
 40
1
 10
249.125315
 20
88.484180
 30
0.0
 10
249.666767
 20
88.171572
 30
0.0
 10
250.333864
 20
88.171572
 30
0.0
 10
250.875316
 20
88.484180
 30
0.0
  0
SPLINE
  5
2b0
100
AcDbEntity
  8
0
 62
7
100
AcDbSpline
 70
8
 71
3
 72
8
 73
4
 74
0
 40
0
 40
0
 40
0
 40
0
 40
1
 40
1
 40
1
 40
1
 10
250.875316
 20
88.484180
 30
0.0
 10
251.416768
 20
88.796787
 30
0.0
 10
251.750316
 20
89.374510
 30
0.0
 10
251.750316
 20
89.999725
 30
0.0
  0
LWPOLYLINE
  5
2b1
100
AcDbEntity
  8
0
 62
7
100
AcDbPolyline
 90
1
 70
1
 10
231.750312
 20
49.999723
 30
0.0
  0
SPLINE
  5
2b2
100
AcDbEntity
  8
0
 62
7
100
AcDbSpline
 70
8
 71
3
 72
8
 73
4
 74
0
 40
0
 40
0
 40
0
 40
0
 40
1
 40
1
 40
1
 40
1
 10
171.750310
 20
89.999725
 30
0.0
 10
171.750310
 20
90.624940
 30
0.0
 10
171.416761
 20
91.202662
 30
0.0
 10
170.875309
 20
91.515270
 30
0.0
  0
SPLINE
  5
2b3
100
AcDbEntity
  8
0
 62
7
100
AcDbSpline
 70
8
 71
3
 72
8
 73
4
 74
0
 40
0
 40
0
 40
0
 40
0
 40
1
 40
1
 40
1
 40
1
 10
170.875309
 20
91.515270
 30
0.0
 10
170.333857
 20
91.827877
 30
0.0
 10
169.666761
 20
91.827877
 30
0.0
 10
169.125309
 20
91.515270
 30
0.0
  0
SPLINE
  5
2b4
100
AcDbEntity
  8
0
 62
7
100
AcDbSpline
 70
8
 71
3
 72
8
 73
4
 74
0
 40
0
 40
0
 40
0
 40
0
 40
1
 40
1
 40
1
 40
1
 10
169.125309
 20
91.515270
 30
0.0
 10
168.583857
 20
91.202662
 30
0.0
 10
168.250309
 20
90.624940
 30
0.0
 10
168.250309
 20
89.999725
 30
0.0
  0
SPLINE
  5
2b5
100
AcDbEntity
  8
0
 62
7
100
AcDbSpline
 70
8
 71
3
 72
8
 73
4
 74
0
 40
0
 40
0
 40
0
 40
0
 40
1
 40
1
 40
1
 40
1
 10
168.250309
 20
89.999725
 30
0.0
 10
168.250309
 20
89.374510
 30
0.0
 10
168.583857
 20
88.796787
 30
0.0
 10
169.125309
 20
88.484180
 30
0.0
  0
SPLINE
  5
2b6
100
AcDbEntity
  8
0
 62
7
100
AcDbSpline
 70
8
 71
3
 72
8
 73
4
 74
0
 40
0
 40
0
 40
0
 40
0
 40
1
 40
1
 40
1
 40
1
 10
169.125309
 20
88.484180
 30
0.0
 10
169.666761
 20
88.171572
 30
0.0
 10
170.333857
 20
88.171572
 30
0.0
 10
170.875309
 20
88.484180
 30
0.0
  0
SPLINE
  5
2b7
100
AcDbEntity
  8
0
 62
7
100
AcDbSpline
 70
8
 71
3
 72
8
 73
4
 74
0
 40
0
 40
0
 40
0
 40
0
 40
1
 40
1
 40
1
 40
1
 10
170.875309
 20
88.484180
 30
0.0
 10
171.416761
 20
88.796787
 30
0.0
 10
171.750310
 20
89.374510
 30
0.0
 10
171.750310
 20
89.999725
 30
0.0
  0
LWPOLYLINE
  5
2b8
100
AcDbEntity
  8
0
 62
7
100
AcDbPolyline
 90
1
 70
1
 10
251.750316
 20
89.999725
 30
0.0
  0
SPLINE
  5
2b9
100
AcDbEntity
  8
0
 62
7
100
AcDbSpline
 70
8
 71
3
 72
8
 73
4
 74
0
 40
0
 40
0
 40
0
 40
0
 40
1
 40
1
 40
1
 40
1
 10
51.750302
 20
109.999712
 30
0.0
 10
51.749382
 20
110.965560
 30
0.0
 10
50.966150
 20
111.748046
 30
0.0
 10
50.000303
 20
111.748046
 30
0.0
  0
SPLINE
  5
2ba
100
AcDbEntity
  8
0
 62
7
100
AcDbSpline
 70
8
 71
3
 72
8
 73
4
 74
0
 40
0
 40
0
 40
0
 40
0
 40
1
 40
1
 40
1
 40
1
 10
50.000303
 20
111.748046
 30
0.0
 10
49.034455
 20
111.748046
 30
0.0
 10
48.251223
 20
110.965560
 30
0.0
 10
48.250303
 20
109.999712
 30
0.0
  0
SPLINE
  5
2bb
100
AcDbEntity
  8
0
 62
7
100
AcDbSpline
 70
8
 71
3
 72
8
 73
4
 74
0
 40
0
 40
0
 40
0
 40
0
 40
1
 40
1
 40
1
 40
1
 10
48.250303
 20
109.999712
 30
0.0
 10
48.251223
 20
109.033865
 30
0.0
 10
49.034455
 20
108.251379
 30
0.0
 10
50.000303
 20
108.251379
 30
0.0
  0
SPLINE
  5
2bc
100
AcDbEntity
  8
0
 62
7
100
AcDbSpline
 70
8
 71
3
 72
8
 73
4
 74
0
 40
0
 40
0
 40
0
 40
0
 40
1
 40
1
 40
1
 40
1
 10
50.000303
 20
108.251379
 30
0.0
 10
50.966150
 20
108.251379
 30
0.0
 10
51.749382
 20
109.033865
 30
0.0
 10
51.750302
 20
109.999712
 30
0.0
  0
LWPOLYLINE
  5
2bd
100
AcDbEntity
  8
0
 62
7
100
AcDbPolyline
 90
1
 70
1
 10
171.750310
 20
89.999725
 30
0.0
  0
SPLINE
  5
2be
100
AcDbEntity
  8
0
 62
7
100
AcDbSpline
 70
8
 71
3
 72
8
 73
4
 74
0
 40
0
 40
0
 40
0
 40
0
 40
1
 40
1
 40
1
 40
1
 10
11.750306
 20
29.999709
 30
0.0
 10
11.750306
 20
30.624926
 30
0.0
 10
11.416756
 20
31.202651
 30
0.0
 10
10.875302
 20
31.515260
 30
0.0
  0
SPLINE
  5
2bf
100
AcDbEntity
  8
0
 62
7
100
AcDbSpline
 70
8
 71
3
 72
8
 73
4
 74
0
 40
0
 40
0
 40
0
 40
0
 40
1
 40
1
 40
1
 40
1
 10
10.875302
 20
31.515260
 30
0.0
 10
10.333848
 20
31.827868
 30
0.0
 10
9.666749
 20
31.827868
 30
0.0
 10
9.125295
 20
31.515260
 30
0.0
  0
SPLINE
  5
2c0
100
AcDbEntity
  8
0
 62
7
100
AcDbSpline
 70
8
 71
3
 72
8
 73
4
 74
0
 40
0
 40
0
 40
0
 40
0
 40
1
 40
1
 40
1
 40
1
 10
9.125295
 20
31.515260
 30
0.0
 10
8.583841
 20
31.202651
 30
0.0
 10
8.250291
 20
30.624926
 30
0.0
 10
8.250291
 20
29.999709
 30
0.0
  0
SPLINE
  5
2c1
100
AcDbEntity
  8
0
 62
7
100
AcDbSpline
 70
8
 71
3
 72
8
 73
4
 74
0
 40
0
 40
0
 40
0
 40
0
 40
1
 40
1
 40
1
 40
1
 10
8.250291
 20
29.999709
 30
0.0
 10
8.250291
 20
29.374492
 30
0.0
 10
8.583841
 20
28.796767
 30
0.0
 10
9.125295
 20
28.484158
 30
0.0
  0
SPLINE
  5
2c2
100
AcDbEntity
  8
0
 62
7
100
AcDbSpline
 70
8
 71
3
 72
8
 73
4
 74
0
 40
0
 40
0
 40
0
 40
0
 40
1
 40
1
 40
1
 40
1
 10
9.125295
 20
28.484158
 30
0.0
 10
9.666749
 20
28.171550
 30
0.0
 10
10.333848
 20
28.171550
 30
0.0
 10
10.875302
 20
28.484158
 30
0.0
  0
SPLINE
  5
2c3
100
AcDbEntity
  8
0
 62
7
100
AcDbSpline
 70
8
 71
3
 72
8
 73
4
 74
0
 40
0
 40
0
 40
0
 40
0
 40
1
 40
1
 40
1
 40
1
 10
10.875302
 20
28.484158
 30
0.0
 10
11.416756
 20
28.796767
 30
0.0
 10
11.750306
 20
29.374492
 30
0.0
 10
11.750306
 20
29.999709
 30
0.0
  0
LWPOLYLINE
  5
2c4
100
AcDbEntity
  8
0
 62
7
100
AcDbPolyline
 90
1
 70
1
 10
51.750302
 20
109.999712
 30
0.0
  0
SPLINE
  5
2c5
100
AcDbEntity
  8
0
 62
7
100
AcDbSpline
 70
8
 71
3
 72
8
 73
4
 74
0
 40
0
 40
0
 40
0
 40
0
 40
1
 40
1
 40
1
 40
1
 10
71.750305
 20
89.999725
 30
0.0
 10
71.750305
 20
90.966223
 30
0.0
 10
70.966803
 20
91.749725
 30
0.0
 10
70.000305
 20
91.749725
 30
0.0
  0
SPLINE
  5
2c6
100
AcDbEntity
  8
0
 62
7
100
AcDbSpline
 70
8
 71
3
 72
8
 73
4
 74
0
 40
0
 40
0
 40
0
 40
0
 40
1
 40
1
 40
1
 40
1
 10
70.000305
 20
91.749725
 30
0.0
 10
69.033806
 20
91.749725
 30
0.0
 10
68.250304
 20
90.966223
 30
0.0
 10
68.250304
 20
89.999725
 30
0.0
  0
SPLINE
  5
2c7
100
AcDbEntity
  8
0
 62
7
100
AcDbSpline
 70
8
 71
3
 72
8
 73
4
 74
0
 40
0
 40
0
 40
0
 40
0
 40
1
 40
1
 40
1
 40
1
 10
68.250304
 20
89.999725
 30
0.0
 10
68.250304
 20
89.033226
 30
0.0
 10
69.033806
 20
88.249724
 30
0.0
 10
70.000305
 20
88.249724
 30
0.0
  0
SPLINE
  5
2c8
100
AcDbEntity
  8
0
 62
7
100
AcDbSpline
 70
8
 71
3
 72
8
 73
4
 74
0
 40
0
 40
0
 40
0
 40
0
 40
1
 40
1
 40
1
 40
1
 10
70.000305
 20
88.249724
 30
0.0
 10
70.966803
 20
88.249724
 30
0.0
 10
71.750305
 20
89.033226
 30
0.0
 10
71.750305
 20
89.999725
 30
0.0
  0
LWPOLYLINE
  5
2c9
100
AcDbEntity
  8
0
 62
7
100
AcDbPolyline
 90
1
 70
1
 10
11.750306
 20
29.999709
 30
0.0
  0
SPLINE
  5
2ca
100
AcDbEntity
  8
0
 62
7
100
AcDbSpline
 70
8
 71
3
 72
8
 73
4
 74
0
 40
0
 40
0
 40
0
 40
0
 40
1
 40
1
 40
1
 40
1
 10
111.750307
 20
149.999714
 30
0.0
 10
111.750307
 20
150.966213
 30
0.0
 10
110.966805
 20
151.749715
 30
0.0
 10
110.000306
 20
151.749715
 30
0.0
  0
SPLINE
  5
2cb
100
AcDbEntity
  8
0
 62
7
100
AcDbSpline
 70
8
 71
3
 72
8
 73
4
 74
0
 40
0
 40
0
 40
0
 40
0
 40
1
 40
1
 40
1
 40
1
 10
110.000306
 20
151.749715
 30
0.0
 10
109.033808
 20
151.749715
 30
0.0
 10
108.250306
 20
150.966213
 30
0.0
 10
108.250306
 20
149.999714
 30
0.0
  0
SPLINE
  5
2cc
100
AcDbEntity
  8
0
 62
7
100
AcDbSpline
 70
8
 71
3
 72
8
 73
4
 74
0
 40
0
 40
0
 40
0
 40
0
 40
1
 40
1
 40
1
 40
1
 10
108.250306
 20
149.999714
 30
0.0
 10
108.250306
 20
149.033216
 30
0.0
 10
109.033808
 20
148.249714
 30
0.0
 10
110.000306
 20
148.249714
 30
0.0
  0
SPLINE
  5
2cd
100
AcDbEntity
  8
0
 62
7
100
AcDbSpline
 70
8
 71
3
 72
8
 73
4
 74
0
 40
0
 40
0
 40
0
 40
0
 40
1
 40
1
 40
1
 40
1
 10
110.000306
 20
148.249714
 30
0.0
 10
110.966805
 20
148.249714
 30
0.0
 10
111.750307
 20
149.033216
 30
0.0
 10
111.750307
 20
149.999714
 30
0.0
  0
LWPOLYLINE
  5
2ce
100
AcDbEntity
  8
0
 62
7
100
AcDbPolyline
 90
1
 70
1
 10
71.750305
 20
89.999725
 30
0.0
  0
SPLINE
  5
2cf
100
AcDbEntity
  8
0
 62
7
100
AcDbSpline
 70
8
 71
3
 72
8
 73
4
 74
0
 40
0
 40
0
 40
0
 40
0
 40
1
 40
1
 40
1
 40
1
 10
131.750308
 20
149.999714
 30
0.0
 10
131.750308
 20
150.624929
 30
0.0
 10
131.416760
 20
151.202652
 30
0.0
 10
130.875308
 20
151.515259
 30
0.0
  0
SPLINE
  5
2d0
100
AcDbEntity
  8
0
 62
7
100
AcDbSpline
 70
8
 71
3
 72
8
 73
4
 74
0
 40
0
 40
0
 40
0
 40
0
 40
1
 40
1
 40
1
 40
1
 10
130.875308
 20
151.515259
 30
0.0
 10
130.333856
 20
151.827867
 30
0.0
 10
129.666759
 20
151.827867
 30
0.0
 10
129.125307
 20
151.515259
 30
0.0
  0
SPLINE
  5
2d1
100
AcDbEntity
  8
0
 62
7
100
AcDbSpline
 70
8
 71
3
 72
8
 73
4
 74
0
 40
0
 40
0
 40
0
 40
0
 40
1
 40
1
 40
1
 40
1
 10
129.125307
 20
151.515259
 30
0.0
 10
128.583855
 20
151.202652
 30
0.0
 10
128.250307
 20
150.624929
 30
0.0
 10
128.250307
 20
149.999714
 30
0.0
  0
SPLINE
  5
2d2
100
AcDbEntity
  8
0
 62
7
100
AcDbSpline
 70
8
 71
3
 72
8
 73
4
 74
0
 40
0
 40
0
 40
0
 40
0
 40
1
 40
1
 40
1
 40
1
 10
128.250307
 20
149.999714
 30
0.0
 10
128.250307
 20
149.374499
 30
0.0
 10
128.583855
 20
148.796777
 30
0.0
 10
129.125307
 20
148.484169
 30
0.0
  0
SPLINE
  5
2d3
100
AcDbEntity
  8
0
 62
7
100
AcDbSpline
 70
8
 71
3
 72
8
 73
4
 74
0
 40
0
 40
0
 40
0
 40
0
 40
1
 40
1
 40
1
 40
1
 10
129.125307
 20
148.484169
 30
0.0
 10
129.666759
 20
148.171562
 30
0.0
 10
130.333856
 20
148.171562
 30
0.0
 10
130.875308
 20
148.484169
 30
0.0
  0
SPLINE
  5
2d4
100
AcDbEntity
  8
0
 62
7
100
AcDbSpline
 70
8
 71
3
 72
8
 73
4
 74
0
 40
0
 40
0
 40
0
 40
0
 40
1
 40
1
 40
1
 40
1
 10
130.875308
 20
148.484169
 30
0.0
 10
131.416760
 20
148.796777
 30
0.0
 10
131.750308
 20
149.374499
 30
0.0
 10
131.750308
 20
149.999714
 30
0.0
  0
LWPOLYLINE
  5
2d5
100
AcDbEntity
  8
0
 62
7
100
AcDbPolyline
 90
1
 70
1
 10
111.750307
 20
149.999714
 30
0.0
  0
SPLINE
  5
2d6
100
AcDbEntity
  8
0
 62
7
100
AcDbSpline
 70
8
 71
3
 72
8
 73
4
 74
0
 40
0
 40
0
 40
0
 40
0
 40
1
 40
1
 40
1
 40
1
 10
51.750302
 20
129.999727
 30
0.0
 10
51.749382
 20
130.965574
 30
0.0
 10
50.966150
 20
131.748060
 30
0.0
 10
50.000303
 20
131.748060
 30
0.0
  0
SPLINE
  5
2d7
100
AcDbEntity
  8
0
 62
7
100
AcDbSpline
 70
8
 71
3
 72
8
 73
4
 74
0
 40
0
 40
0
 40
0
 40
0
 40
1
 40
1
 40
1
 40
1
 10
50.000303
 20
131.748060
 30
0.0
 10
49.034455
 20
131.748060
 30
0.0
 10
48.251223
 20
130.965574
 30
0.0
 10
48.250303
 20
129.999727
 30
0.0
  0
SPLINE
  5
2d8
100
AcDbEntity
  8
0
 62
7
100
AcDbSpline
 70
8
 71
3
 72
8
 73
4
 74
0
 40
0
 40
0
 40
0
 40
0
 40
1
 40
1
 40
1
 40
1
 10
48.250303
 20
129.999727
 30
0.0
 10
48.251223
 20
129.033880
 30
0.0
 10
49.034455
 20
128.251393
 30
0.0
 10
50.000303
 20
128.251393
 30
0.0
  0
SPLINE
  5
2d9
100
AcDbEntity
  8
0
 62
7
100
AcDbSpline
 70
8
 71
3
 72
8
 73
4
 74
0
 40
0
 40
0
 40
0
 40
0
 40
1
 40
1
 40
1
 40
1
 10
50.000303
 20
128.251393
 30
0.0
 10
50.966150
 20
128.251393
 30
0.0
 10
51.749382
 20
129.033880
 30
0.0
 10
51.750302
 20
129.999727
 30
0.0
  0
LWPOLYLINE
  5
2da
100
AcDbEntity
  8
0
 62
7
100
AcDbPolyline
 90
1
 70
1
 10
131.750308
 20
149.999714
 30
0.0
  0
SPLINE
  5
2db
100
AcDbEntity
  8
0
 62
7
100
AcDbSpline
 70
8
 71
3
 72
8
 73
4
 74
0
 40
0
 40
0
 40
0
 40
0
 40
1
 40
1
 40
1
 40
1
 10
51.750302
 20
149.999714
 30
0.0
 10
51.749382
 20
150.965561
 30
0.0
 10
50.966150
 20
151.748048
 30
0.0
 10
50.000303
 20
151.748048
 30
0.0
  0
SPLINE
  5
2dc
100
AcDbEntity
  8
0
 62
7
100
AcDbSpline
 70
8
 71
3
 72
8
 73
4
 74
0
 40
0
 40
0
 40
0
 40
0
 40
1
 40
1
 40
1
 40
1
 10
50.000303
 20
151.748048
 30
0.0
 10
49.034455
 20
151.748048
 30
0.0
 10
48.251223
 20
150.965561
 30
0.0
 10
48.250303
 20
149.999714
 30
0.0
  0
SPLINE
  5
2dd
100
AcDbEntity
  8
0
 62
7
100
AcDbSpline
 70
8
 71
3
 72
8
 73
4
 74
0
 40
0
 40
0
 40
0
 40
0
 40
1
 40
1
 40
1
 40
1
 10
48.250303
 20
149.999714
 30
0.0
 10
48.251223
 20
149.033867
 30
0.0
 10
49.034455
 20
148.251381
 30
0.0
 10
50.000303
 20
148.251381
 30
0.0
  0
SPLINE
  5
2de
100
AcDbEntity
  8
0
 62
7
100
AcDbSpline
 70
8
 71
3
 72
8
 73
4
 74
0
 40
0
 40
0
 40
0
 40
0
 40
1
 40
1
 40
1
 40
1
 10
50.000303
 20
148.251381
 30
0.0
 10
50.966150
 20
148.251381
 30
0.0
 10
51.749382
 20
149.033867
 30
0.0
 10
51.750302
 20
149.999714
 30
0.0
  0
LWPOLYLINE
  5
2df
100
AcDbEntity
  8
0
 62
7
100
AcDbPolyline
 90
1
 70
1
 10
51.750302
 20
129.999727
 30
0.0
  0
SPLINE
  5
2e0
100
AcDbEntity
  8
0
 62
7
100
AcDbSpline
 70
8
 71
3
 72
8
 73
4
 74
0
 40
0
 40
0
 40
0
 40
0
 40
1
 40
1
 40
1
 40
1
 10
11.750306
 20
189.999715
 30
0.0
 10
11.750306
 20
190.624933
 30
0.0
 10
11.416756
 20
191.202657
 30
0.0
 10
10.875302
 20
191.515266
 30
0.0
  0
SPLINE
  5
2e1
100
AcDbEntity
  8
0
 62
7
100
AcDbSpline
 70
8
 71
3
 72
8
 73
4
 74
0
 40
0
 40
0
 40
0
 40
0
 40
1
 40
1
 40
1
 40
1
 10
10.875302
 20
191.515266
 30
0.0
 10
10.333848
 20
191.827875
 30
0.0
 10
9.666749
 20
191.827875
 30
0.0
 10
9.125295
 20
191.515266
 30
0.0
  0
SPLINE
  5
2e2
100
AcDbEntity
  8
0
 62
7
100
AcDbSpline
 70
8
 71
3
 72
8
 73
4
 74
0
 40
0
 40
0
 40
0
 40
0
 40
1
 40
1
 40
1
 40
1
 10
9.125295
 20
191.515266
 30
0.0
 10
8.583841
 20
191.202657
 30
0.0
 10
8.250291
 20
190.624933
 30
0.0
 10
8.250291
 20
189.999715
 30
0.0
  0
SPLINE
  5
2e3
100
AcDbEntity
  8
0
 62
7
100
AcDbSpline
 70
8
 71
3
 72
8
 73
4
 74
0
 40
0
 40
0
 40
0
 40
0
 40
1
 40
1
 40
1
 40
1
 10
8.250291
 20
189.999715
 30
0.0
 10
8.250291
 20
189.374498
 30
0.0
 10
8.583841
 20
188.796773
 30
0.0
 10
9.125295
 20
188.484165
 30
0.0
  0
SPLINE
  5
2e4
100
AcDbEntity
  8
0
 62
7
100
AcDbSpline
 70
8
 71
3
 72
8
 73
4
 74
0
 40
0
 40
0
 40
0
 40
0
 40
1
 40
1
 40
1
 40
1
 10
9.125295
 20
188.484165
 30
0.0
 10
9.666749
 20
188.171556
 30
0.0
 10
10.333848
 20
188.171556
 30
0.0
 10
10.875302
 20
188.484165
 30
0.0
  0
SPLINE
  5
2e5
100
AcDbEntity
  8
0
 62
7
100
AcDbSpline
 70
8
 71
3
 72
8
 73
4
 74
0
 40
0
 40
0
 40
0
 40
0
 40
1
 40
1
 40
1
 40
1
 10
10.875302
 20
188.484165
 30
0.0
 10
11.416756
 20
188.796773
 30
0.0
 10
11.750306
 20
189.374498
 30
0.0
 10
11.750306
 20
189.999715
 30
0.0
  0
LWPOLYLINE
  5
2e6
100
AcDbEntity
  8
0
 62
7
100
AcDbPolyline
 90
1
 70
1
 10
51.750302
 20
149.999714
 30
0.0
  0
SPLINE
  5
2e7
100
AcDbEntity
  8
0
 62
7
100
AcDbSpline
 70
8
 71
3
 72
8
 73
4
 74
0
 40
0
 40
0
 40
0
 40
0
 40
1
 40
1
 40
1
 40
1
 10
131.750308
 20
9.999721
 30
0.0
 10
131.750308
 20
10.624936
 30
0.0
 10
131.416760
 20
11.202659
 30
0.0
 10
130.875308
 20
11.515266
 30
0.0
  0
SPLINE
  5
2e8
100
AcDbEntity
  8
0
 62
7
100
AcDbSpline
 70
8
 71
3
 72
8
 73
4
 74
0
 40
0
 40
0
 40
0
 40
0
 40
1
 40
1
 40
1
 40
1
 10
130.875308
 20
11.515266
 30
0.0
 10
130.333856
 20
11.827874
 30
0.0
 10
129.666759
 20
11.827874
 30
0.0
 10
129.125307
 20
11.515266
 30
0.0
  0
SPLINE
  5
2e9
100
AcDbEntity
  8
0
 62
7
100
AcDbSpline
 70
8
 71
3
 72
8
 73
4
 74
0
 40
0
 40
0
 40
0
 40
0
 40
1
 40
1
 40
1
 40
1
 10
129.125307
 20
11.515266
 30
0.0
 10
128.583855
 20
11.202659
 30
0.0
 10
128.250307
 20
10.624936
 30
0.0
 10
128.250307
 20
9.999721
 30
0.0
  0
SPLINE
  5
2ea
100
AcDbEntity
  8
0
 62
7
100
AcDbSpline
 70
8
 71
3
 72
8
 73
4
 74
0
 40
0
 40
0
 40
0
 40
0
 40
1
 40
1
 40
1
 40
1
 10
128.250307
 20
9.999721
 30
0.0
 10
128.250307
 20
9.374506
 30
0.0
 10
128.583855
 20
8.796784
 30
0.0
 10
129.125307
 20
8.484176
 30
0.0
  0
SPLINE
  5
2eb
100
AcDbEntity
  8
0
 62
7
100
AcDbSpline
 70
8
 71
3
 72
8
 73
4
 74
0
 40
0
 40
0
 40
0
 40
0
 40
1
 40
1
 40
1
 40
1
 10
129.125307
 20
8.484176
 30
0.0
 10
129.666759
 20
8.171569
 30
0.0
 10
130.333856
 20
8.171569
 30
0.0
 10
130.875308
 20
8.484176
 30
0.0
  0
SPLINE
  5
2ec
100
AcDbEntity
  8
0
 62
7
100
AcDbSpline
 70
8
 71
3
 72
8
 73
4
 74
0
 40
0
 40
0
 40
0
 40
0
 40
1
 40
1
 40
1
 40
1
 10
130.875308
 20
8.484176
 30
0.0
 10
131.416760
 20
8.796784
 30
0.0
 10
131.750308
 20
9.374506
 30
0.0
 10
131.750308
 20
9.999721
 30
0.0
  0
LWPOLYLINE
  5
2ed
100
AcDbEntity
  8
0
 62
7
100
AcDbPolyline
 90
1
 70
1
 10
11.750306
 20
189.999715
 30
0.0
  0
SPLINE
  5
2ee
100
AcDbEntity
  8
0
 62
7
100
AcDbSpline
 70
8
 71
3
 72
8
 73
4
 74
0
 40
0
 40
0
 40
0
 40
0
 40
1
 40
1
 40
1
 40
1
 10
71.750305
 20
149.999714
 30
0.0
 10
71.750305
 20
150.966213
 30
0.0
 10
70.966803
 20
151.749715
 30
0.0
 10
70.000305
 20
151.749715
 30
0.0
  0
SPLINE
  5
2ef
100
AcDbEntity
  8
0
 62
7
100
AcDbSpline
 70
8
 71
3
 72
8
 73
4
 74
0
 40
0
 40
0
 40
0
 40
0
 40
1
 40
1
 40
1
 40
1
 10
70.000305
 20
151.749715
 30
0.0
 10
69.033806
 20
151.749715
 30
0.0
 10
68.250304
 20
150.966213
 30
0.0
 10
68.250304
 20
149.999714
 30
0.0
  0
SPLINE
  5
2f0
100
AcDbEntity
  8
0
 62
7
100
AcDbSpline
 70
8
 71
3
 72
8
 73
4
 74
0
 40
0
 40
0
 40
0
 40
0
 40
1
 40
1
 40
1
 40
1
 10
68.250304
 20
149.999714
 30
0.0
 10
68.250304
 20
149.033216
 30
0.0
 10
69.033806
 20
148.249714
 30
0.0
 10
70.000305
 20
148.249714
 30
0.0
  0
SPLINE
  5
2f1
100
AcDbEntity
  8
0
 62
7
100
AcDbSpline
 70
8
 71
3
 72
8
 73
4
 74
0
 40
0
 40
0
 40
0
 40
0
 40
1
 40
1
 40
1
 40
1
 10
70.000305
 20
148.249714
 30
0.0
 10
70.966803
 20
148.249714
 30
0.0
 10
71.750305
 20
149.033216
 30
0.0
 10
71.750305
 20
149.999714
 30
0.0
  0
LWPOLYLINE
  5
2f2
100
AcDbEntity
  8
0
 62
7
100
AcDbPolyline
 90
1
 70
1
 10
131.750308
 20
9.999721
 30
0.0
  0
SPLINE
  5
2f3
100
AcDbEntity
  8
0
 62
7
100
AcDbSpline
 70
8
 71
3
 72
8
 73
4
 74
0
 40
0
 40
0
 40
0
 40
0
 40
1
 40
1
 40
1
 40
1
 10
11.750306
 20
169.999728
 30
0.0
 10
11.750306
 20
170.624946
 30
0.0
 10
11.416756
 20
171.202670
 30
0.0
 10
10.875302
 20
171.515279
 30
0.0
  0
SPLINE
  5
2f4
100
AcDbEntity
  8
0
 62
7
100
AcDbSpline
 70
8
 71
3
 72
8
 73
4
 74
0
 40
0
 40
0
 40
0
 40
0
 40
1
 40
1
 40
1
 40
1
 10
10.875302
 20
171.515279
 30
0.0
 10
10.333848
 20
171.827888
 30
0.0
 10
9.666749
 20
171.827888
 30
0.0
 10
9.125295
 20
171.515279
 30
0.0
  0
SPLINE
  5
2f5
100
AcDbEntity
  8
0
 62
7
100
AcDbSpline
 70
8
 71
3
 72
8
 73
4
 74
0
 40
0
 40
0
 40
0
 40
0
 40
1
 40
1
 40
1
 40
1
 10
9.125295
 20
171.515279
 30
0.0
 10
8.583841
 20
171.202670
 30
0.0
 10
8.250291
 20
170.624946
 30
0.0
 10
8.250291
 20
169.999728
 30
0.0
  0
SPLINE
  5
2f6
100
AcDbEntity
  8
0
 62
7
100
AcDbSpline
 70
8
 71
3
 72
8
 73
4
 74
0
 40
0
 40
0
 40
0
 40
0
 40
1
 40
1
 40
1
 40
1
 10
8.250291
 20
169.999728
 30
0.0
 10
8.250291
 20
169.374511
 30
0.0
 10
8.583841
 20
168.796786
 30
0.0
 10
9.125295
 20
168.484178
 30
0.0
  0
SPLINE
  5
2f7
100
AcDbEntity
  8
0
 62
7
100
AcDbSpline
 70
8
 71
3
 72
8
 73
4
 74
0
 40
0
 40
0
 40
0
 40
0
 40
1
 40
1
 40
1
 40
1
 10
9.125295
 20
168.484178
 30
0.0
 10
9.666749
 20
168.171569
 30
0.0
 10
10.333848
 20
168.171569
 30
0.0
 10
10.875302
 20
168.484178
 30
0.0
  0
SPLINE
  5
2f8
100
AcDbEntity
  8
0
 62
7
100
AcDbSpline
 70
8
 71
3
 72
8
 73
4
 74
0
 40
0
 40
0
 40
0
 40
0
 40
1
 40
1
 40
1
 40
1
 10
10.875302
 20
168.484178
 30
0.0
 10
11.416756
 20
168.796786
 30
0.0
 10
11.750306
 20
169.374511
 30
0.0
 10
11.750306
 20
169.999728
 30
0.0
  0
LWPOLYLINE
  5
2f9
100
AcDbEntity
  8
0
 62
7
100
AcDbPolyline
 90
1
 70
1
 10
71.750305
 20
149.999714
 30
0.0
  0
SPLINE
  5
2fa
100
AcDbEntity
  8
0
 62
7
100
AcDbSpline
 70
8
 71
3
 72
8
 73
4
 74
0
 40
0
 40
0
 40
0
 40
0
 40
1
 40
1
 40
1
 40
1
 10
71.750305
 20
129.999727
 30
0.0
 10
71.750305
 20
130.966225
 30
0.0
 10
70.966803
 20
131.749727
 30
0.0
 10
70.000305
 20
131.749727
 30
0.0
  0
SPLINE
  5
2fb
100
AcDbEntity
  8
0
 62
7
100
AcDbSpline
 70
8
 71
3
 72
8
 73
4
 74
0
 40
0
 40
0
 40
0
 40
0
 40
1
 40
1
 40
1
 40
1
 10
70.000305
 20
131.749727
 30
0.0
 10
69.033806
 20
131.749727
 30
0.0
 10
68.250304
 20
130.966225
 30
0.0
 10
68.250304
 20
129.999727
 30
0.0
  0
SPLINE
  5
2fc
100
AcDbEntity
  8
0
 62
7
100
AcDbSpline
 70
8
 71
3
 72
8
 73
4
 74
0
 40
0
 40
0
 40
0
 40
0
 40
1
 40
1
 40
1
 40
1
 10
68.250304
 20
129.999727
 30
0.0
 10
68.250304
 20
129.033228
 30
0.0
 10
69.033806
 20
128.249726
 30
0.0
 10
70.000305
 20
128.249726
 30
0.0
  0
SPLINE
  5
2fd
100
AcDbEntity
  8
0
 62
7
100
AcDbSpline
 70
8
 71
3
 72
8
 73
4
 74
0
 40
0
 40
0
 40
0
 40
0
 40
1
 40
1
 40
1
 40
1
 10
70.000305
 20
128.249726
 30
0.0
 10
70.966803
 20
128.249726
 30
0.0
 10
71.750305
 20
129.033228
 30
0.0
 10
71.750305
 20
129.999727
 30
0.0
  0
LWPOLYLINE
  5
2fe
100
AcDbEntity
  8
0
 62
7
100
AcDbPolyline
 90
1
 70
1
 10
11.750306
 20
169.999728
 30
0.0
  0
SPLINE
  5
2ff
100
AcDbEntity
  8
0
 62
7
100
AcDbSpline
 70
8
 71
3
 72
8
 73
4
 74
0
 40
0
 40
0
 40
0
 40
0
 40
1
 40
1
 40
1
 40
1
 10
151.750309
 20
149.999714
 30
0.0
 10
151.750309
 20
150.966213
 30
0.0
 10
150.966807
 20
151.749715
 30
0.0
 10
150.000308
 20
151.749715
 30
0.0
  0
SPLINE
  5
300
100
AcDbEntity
  8
0
 62
7
100
AcDbSpline
 70
8
 71
3
 72
8
 73
4
 74
0
 40
0
 40
0
 40
0
 40
0
 40
1
 40
1
 40
1
 40
1
 10
150.000308
 20
151.749715
 30
0.0
 10
149.033810
 20
151.749715
 30
0.0
 10
148.250308
 20
150.966213
 30
0.0
 10
148.250308
 20
149.999714
 30
0.0
  0
SPLINE
  5
301
100
AcDbEntity
  8
0
 62
7
100
AcDbSpline
 70
8
 71
3
 72
8
 73
4
 74
0
 40
0
 40
0
 40
0
 40
0
 40
1
 40
1
 40
1
 40
1
 10
148.250308
 20
149.999714
 30
0.0
 10
148.250308
 20
149.033216
 30
0.0
 10
149.033810
 20
148.249714
 30
0.0
 10
150.000308
 20
148.249714
 30
0.0
  0
SPLINE
  5
302
100
AcDbEntity
  8
0
 62
7
100
AcDbSpline
 70
8
 71
3
 72
8
 73
4
 74
0
 40
0
 40
0
 40
0
 40
0
 40
1
 40
1
 40
1
 40
1
 10
150.000308
 20
148.249714
 30
0.0
 10
150.966807
 20
148.249714
 30
0.0
 10
151.750309
 20
149.033216
 30
0.0
 10
151.750309
 20
149.999714
 30
0.0
  0
LWPOLYLINE
  5
303
100
AcDbEntity
  8
0
 62
7
100
AcDbPolyline
 90
1
 70
1
 10
71.750305
 20
129.999727
 30
0.0
  0
SPLINE
  5
304
100
AcDbEntity
  8
0
 62
7
100
AcDbSpline
 70
8
 71
3
 72
8
 73
4
 74
0
 40
0
 40
0
 40
0
 40
0
 40
1
 40
1
 40
1
 40
1
 10
131.750308
 20
189.999715
 30
0.0
 10
131.750308
 20
190.624930
 30
0.0
 10
131.416760
 20
191.202653
 30
0.0
 10
130.875308
 20
191.515260
 30
0.0
  0
SPLINE
  5
305
100
AcDbEntity
  8
0
 62
7
100
AcDbSpline
 70
8
 71
3
 72
8
 73
4
 74
0
 40
0
 40
0
 40
0
 40
0
 40
1
 40
1
 40
1
 40
1
 10
130.875308
 20
191.515260
 30
0.0
 10
130.333856
 20
191.827868
 30
0.0
 10
129.666759
 20
191.827868
 30
0.0
 10
129.125307
 20
191.515260
 30
0.0
  0
SPLINE
  5
306
100
AcDbEntity
  8
0
 62
7
100
AcDbSpline
 70
8
 71
3
 72
8
 73
4
 74
0
 40
0
 40
0
 40
0
 40
0
 40
1
 40
1
 40
1
 40
1
 10
129.125307
 20
191.515260
 30
0.0
 10
128.583855
 20
191.202653
 30
0.0
 10
128.250307
 20
190.624930
 30
0.0
 10
128.250307
 20
189.999715
 30
0.0
  0
SPLINE
  5
307
100
AcDbEntity
  8
0
 62
7
100
AcDbSpline
 70
8
 71
3
 72
8
 73
4
 74
0
 40
0
 40
0
 40
0
 40
0
 40
1
 40
1
 40
1
 40
1
 10
128.250307
 20
189.999715
 30
0.0
 10
128.250307
 20
189.374500
 30
0.0
 10
128.583855
 20
188.796778
 30
0.0
 10
129.125307
 20
188.484170
 30
0.0
  0
SPLINE
  5
308
100
AcDbEntity
  8
0
 62
7
100
AcDbSpline
 70
8
 71
3
 72
8
 73
4
 74
0
 40
0
 40
0
 40
0
 40
0
 40
1
 40
1
 40
1
 40
1
 10
129.125307
 20
188.484170
 30
0.0
 10
129.666759
 20
188.171563
 30
0.0
 10
130.333856
 20
188.171563
 30
0.0
 10
130.875308
 20
188.484170
 30
0.0
  0
SPLINE
  5
309
100
AcDbEntity
  8
0
 62
7
100
AcDbSpline
 70
8
 71
3
 72
8
 73
4
 74
0
 40
0
 40
0
 40
0
 40
0
 40
1
 40
1
 40
1
 40
1
 10
130.875308
 20
188.484170
 30
0.0
 10
131.416760
 20
188.796778
 30
0.0
 10
131.750308
 20
189.374500
 30
0.0
 10
131.750308
 20
189.999715
 30
0.0
  0
LWPOLYLINE
  5
30a
100
AcDbEntity
  8
0
 62
7
100
AcDbPolyline
 90
1
 70
1
 10
151.750309
 20
149.999714
 30
0.0
  0
SPLINE
  5
30b
100
AcDbEntity
  8
0
 62
7
100
AcDbSpline
 70
8
 71
3
 72
8
 73
4
 74
0
 40
0
 40
0
 40
0
 40
0
 40
1
 40
1
 40
1
 40
1
 10
151.750309
 20
89.999725
 30
0.0
 10
151.750309
 20
90.966223
 30
0.0
 10
150.966807
 20
91.749725
 30
0.0
 10
150.000308
 20
91.749725
 30
0.0
  0
SPLINE
  5
30c
100
AcDbEntity
  8
0
 62
7
100
AcDbSpline
 70
8
 71
3
 72
8
 73
4
 74
0
 40
0
 40
0
 40
0
 40
0
 40
1
 40
1
 40
1
 40
1
 10
150.000308
 20
91.749725
 30
0.0
 10
149.033810
 20
91.749725
 30
0.0
 10
148.250308
 20
90.966223
 30
0.0
 10
148.250308
 20
89.999725
 30
0.0
  0
SPLINE
  5
30d
100
AcDbEntity
  8
0
 62
7
100
AcDbSpline
 70
8
 71
3
 72
8
 73
4
 74
0
 40
0
 40
0
 40
0
 40
0
 40
1
 40
1
 40
1
 40
1
 10
148.250308
 20
89.999725
 30
0.0
 10
148.250308
 20
89.033226
 30
0.0
 10
149.033810
 20
88.249725
 30
0.0
 10
150.000308
 20
88.249725
 30
0.0
  0
SPLINE
  5
30e
100
AcDbEntity
  8
0
 62
7
100
AcDbSpline
 70
8
 71
3
 72
8
 73
4
 74
0
 40
0
 40
0
 40
0
 40
0
 40
1
 40
1
 40
1
 40
1
 10
150.000308
 20
88.249725
 30
0.0
 10
150.966807
 20
88.249725
 30
0.0
 10
151.750309
 20
89.033226
 30
0.0
 10
151.750309
 20
89.999725
 30
0.0
  0
LWPOLYLINE
  5
30f
100
AcDbEntity
  8
0
 62
7
100
AcDbPolyline
 90
1
 70
1
 10
131.750308
 20
189.999715
 30
0.0
  0
SPLINE
  5
310
100
AcDbEntity
  8
0
 62
7
100
AcDbSpline
 70
8
 71
3
 72
8
 73
4
 74
0
 40
0
 40
0
 40
0
 40
0
 40
1
 40
1
 40
1
 40
1
 10
271.750330
 20
89.999725
 30
0.0
 10
271.750330
 20
90.624942
 30
0.0
 10
271.416780
 20
91.202667
 30
0.0
 10
270.875326
 20
91.515276
 30
0.0
  0
SPLINE
  5
311
100
AcDbEntity
  8
0
 62
7
100
AcDbSpline
 70
8
 71
3
 72
8
 73
4
 74
0
 40
0
 40
0
 40
0
 40
0
 40
1
 40
1
 40
1
 40
1
 10
270.875326
 20
91.515276
 30
0.0
 10
270.333872
 20
91.827884
 30
0.0
 10
269.666773
 20
91.827884
 30
0.0
 10
269.125319
 20
91.515276
 30
0.0
  0
SPLINE
  5
312
100
AcDbEntity
  8
0
 62
7
100
AcDbSpline
 70
8
 71
3
 72
8
 73
4
 74
0
 40
0
 40
0
 40
0
 40
0
 40
1
 40
1
 40
1
 40
1
 10
269.125319
 20
91.515276
 30
0.0
 10
268.583865
 20
91.202667
 30
0.0
 10
268.250316
 20
90.624942
 30
0.0
 10
268.250316
 20
89.999725
 30
0.0
  0
SPLINE
  5
313
100
AcDbEntity
  8
0
 62
7
100
AcDbSpline
 70
8
 71
3
 72
8
 73
4
 74
0
 40
0
 40
0
 40
0
 40
0
 40
1
 40
1
 40
1
 40
1
 10
268.250316
 20
89.999725
 30
0.0
 10
268.250316
 20
89.374507
 30
0.0
 10
268.583865
 20
88.796783
 30
0.0
 10
269.125319
 20
88.484174
 30
0.0
  0
SPLINE
  5
314
100
AcDbEntity
  8
0
 62
7
100
AcDbSpline
 70
8
 71
3
 72
8
 73
4
 74
0
 40
0
 40
0
 40
0
 40
0
 40
1
 40
1
 40
1
 40
1
 10
269.125319
 20
88.484174
 30
0.0
 10
269.666773
 20
88.171565
 30
0.0
 10
270.333872
 20
88.171565
 30
0.0
 10
270.875326
 20
88.484174
 30
0.0
  0
SPLINE
  5
315
100
AcDbEntity
  8
0
 62
7
100
AcDbSpline
 70
8
 71
3
 72
8
 73
4
 74
0
 40
0
 40
0
 40
0
 40
0
 40
1
 40
1
 40
1
 40
1
 10
270.875326
 20
88.484174
 30
0.0
 10
271.416780
 20
88.796783
 30
0.0
 10
271.750330
 20
89.374507
 30
0.0
 10
271.750330
 20
89.999725
 30
0.0
  0
LWPOLYLINE
  5
316
100
AcDbEntity
  8
0
 62
7
100
AcDbPolyline
 90
1
 70
1
 10
151.750309
 20
89.999725
 30
0.0
  0
SPLINE
  5
317
100
AcDbEntity
  8
0
 62
7
100
AcDbSpline
 70
8
 71
3
 72
8
 73
4
 74
0
 40
0
 40
0
 40
0
 40
0
 40
1
 40
1
 40
1
 40
1
 10
191.750311
 20
89.999725
 30
0.0
 10
191.750311
 20
90.624940
 30
0.0
 10
191.416762
 20
91.202662
 30
0.0
 10
190.875310
 20
91.515270
 30
0.0
  0
SPLINE
  5
318
100
AcDbEntity
  8
0
 62
7
100
AcDbSpline
 70
8
 71
3
 72
8
 73
4
 74
0
 40
0
 40
0
 40
0
 40
0
 40
1
 40
1
 40
1
 40
1
 10
190.875310
 20
91.515270
 30
0.0
 10
190.333858
 20
91.827877
 30
0.0
 10
189.666762
 20
91.827877
 30
0.0
 10
189.125310
 20
91.515270
 30
0.0
  0
SPLINE
  5
319
100
AcDbEntity
  8
0
 62
7
100
AcDbSpline
 70
8
 71
3
 72
8
 73
4
 74
0
 40
0
 40
0
 40
0
 40
0
 40
1
 40
1
 40
1
 40
1
 10
189.125310
 20
91.515270
 30
0.0
 10
188.583858
 20
91.202662
 30
0.0
 10
188.250309
 20
90.624940
 30
0.0
 10
188.250309
 20
89.999725
 30
0.0
  0
SPLINE
  5
31a
100
AcDbEntity
  8
0
 62
7
100
AcDbSpline
 70
8
 71
3
 72
8
 73
4
 74
0
 40
0
 40
0
 40
0
 40
0
 40
1
 40
1
 40
1
 40
1
 10
188.250309
 20
89.999725
 30
0.0
 10
188.250309
 20
89.374510
 30
0.0
 10
188.583858
 20
88.796787
 30
0.0
 10
189.125310
 20
88.484180
 30
0.0
  0
SPLINE
  5
31b
100
AcDbEntity
  8
0
 62
7
100
AcDbSpline
 70
8
 71
3
 72
8
 73
4
 74
0
 40
0
 40
0
 40
0
 40
0
 40
1
 40
1
 40
1
 40
1
 10
189.125310
 20
88.484180
 30
0.0
 10
189.666762
 20
88.171572
 30
0.0
 10
190.333858
 20
88.171572
 30
0.0
 10
190.875310
 20
88.484180
 30
0.0
  0
SPLINE
  5
31c
100
AcDbEntity
  8
0
 62
7
100
AcDbSpline
 70
8
 71
3
 72
8
 73
4
 74
0
 40
0
 40
0
 40
0
 40
0
 40
1
 40
1
 40
1
 40
1
 10
190.875310
 20
88.484180
 30
0.0
 10
191.416762
 20
88.796787
 30
0.0
 10
191.750311
 20
89.374510
 30
0.0
 10
191.750311
 20
89.999725
 30
0.0
  0
LWPOLYLINE
  5
31d
100
AcDbEntity
  8
0
 62
7
100
AcDbPolyline
 90
1
 70
1
 10
271.750330
 20
89.999725
 30
0.0
  0
SPLINE
  5
31e
100
AcDbEntity
  8
0
 62
7
100
AcDbSpline
 70
8
 71
3
 72
8
 73
4
 74
0
 40
0
 40
0
 40
0
 40
0
 40
1
 40
1
 40
1
 40
1
 10
291.750318
 20
89.999725
 30
0.0
 10
291.747746
 20
90.964399
 30
0.0
 10
290.965001
 20
91.745060
 30
0.0
 10
290.000324
 20
91.745060
 30
0.0
  0
SPLINE
  5
31f
100
AcDbEntity
  8
0
 62
7
100
AcDbSpline
 70
8
 71
3
 72
8
 73
4
 74
0
 40
0
 40
0
 40
0
 40
0
 40
1
 40
1
 40
1
 40
1
 10
290.000324
 20
91.745060
 30
0.0
 10
289.035647
 20
91.745060
 30
0.0
 10
288.252901
 20
90.964399
 30
0.0
 10
288.250330
 20
89.999725
 30
0.0
  0
SPLINE
  5
320
100
AcDbEntity
  8
0
 62
7
100
AcDbSpline
 70
8
 71
3
 72
8
 73
4
 74
0
 40
0
 40
0
 40
0
 40
0
 40
1
 40
1
 40
1
 40
1
 10
288.250330
 20
89.999725
 30
0.0
 10
288.252901
 20
89.035051
 30
0.0
 10
289.035647
 20
88.254390
 30
0.0
 10
290.000324
 20
88.254390
 30
0.0
  0
SPLINE
  5
321
100
AcDbEntity
  8
0
 62
7
100
AcDbSpline
 70
8
 71
3
 72
8
 73
4
 74
0
 40
0
 40
0
 40
0
 40
0
 40
1
 40
1
 40
1
 40
1
 10
290.000324
 20
88.254390
 30
0.0
 10
290.965001
 20
88.254390
 30
0.0
 10
291.747746
 20
89.035051
 30
0.0
 10
291.750318
 20
89.999725
 30
0.0
  0
LWPOLYLINE
  5
322
100
AcDbEntity
  8
0
 62
7
100
AcDbPolyline
 90
1
 70
1
 10
191.750311
 20
89.999725
 30
0.0
  0
SPLINE
  5
323
100
AcDbEntity
  8
0
 62
7
100
AcDbSpline
 70
8
 71
3
 72
8
 73
4
 74
0
 40
0
 40
0
 40
0
 40
0
 40
1
 40
1
 40
1
 40
1
 10
191.750311
 20
69.999711
 30
0.0
 10
191.750311
 20
70.624926
 30
0.0
 10
191.416762
 20
71.202648
 30
0.0
 10
190.875310
 20
71.515256
 30
0.0
  0
SPLINE
  5
324
100
AcDbEntity
  8
0
 62
7
100
AcDbSpline
 70
8
 71
3
 72
8
 73
4
 74
0
 40
0
 40
0
 40
0
 40
0
 40
1
 40
1
 40
1
 40
1
 10
190.875310
 20
71.515256
 30
0.0
 10
190.333858
 20
71.827863
 30
0.0
 10
189.666762
 20
71.827863
 30
0.0
 10
189.125310
 20
71.515256
 30
0.0
  0
SPLINE
  5
325
100
AcDbEntity
  8
0
 62
7
100
AcDbSpline
 70
8
 71
3
 72
8
 73
4
 74
0
 40
0
 40
0
 40
0
 40
0
 40
1
 40
1
 40
1
 40
1
 10
189.125310
 20
71.515256
 30
0.0
 10
188.583858
 20
71.202648
 30
0.0
 10
188.250309
 20
70.624926
 30
0.0
 10
188.250309
 20
69.999711
 30
0.0
  0
SPLINE
  5
326
100
AcDbEntity
  8
0
 62
7
100
AcDbSpline
 70
8
 71
3
 72
8
 73
4
 74
0
 40
0
 40
0
 40
0
 40
0
 40
1
 40
1
 40
1
 40
1
 10
188.250309
 20
69.999711
 30
0.0
 10
188.250309
 20
69.374496
 30
0.0
 10
188.583858
 20
68.796773
 30
0.0
 10
189.125310
 20
68.484166
 30
0.0
  0
SPLINE
  5
327
100
AcDbEntity
  8
0
 62
7
100
AcDbSpline
 70
8
 71
3
 72
8
 73
4
 74
0
 40
0
 40
0
 40
0
 40
0
 40
1
 40
1
 40
1
 40
1
 10
189.125310
 20
68.484166
 30
0.0
 10
189.666762
 20
68.171558
 30
0.0
 10
190.333858
 20
68.171558
 30
0.0
 10
190.875310
 20
68.484166
 30
0.0
  0
SPLINE
  5
328
100
AcDbEntity
  8
0
 62
7
100
AcDbSpline
 70
8
 71
3
 72
8
 73
4
 74
0
 40
0
 40
0
 40
0
 40
0
 40
1
 40
1
 40
1
 40
1
 10
190.875310
 20
68.484166
 30
0.0
 10
191.416762
 20
68.796773
 30
0.0
 10
191.750311
 20
69.374496
 30
0.0
 10
191.750311
 20
69.999711
 30
0.0
  0
LWPOLYLINE
  5
329
100
AcDbEntity
  8
0
 62
7
100
AcDbPolyline
 90
1
 70
1
 10
291.750318
 20
89.999725
 30
0.0
  0
SPLINE
  5
32a
100
AcDbEntity
  8
0
 62
7
100
AcDbSpline
 70
8
 71
3
 72
8
 73
4
 74
0
 40
0
 40
0
 40
0
 40
0
 40
1
 40
1
 40
1
 40
1
 10
271.750330
 20
49.999723
 30
0.0
 10
271.750330
 20
50.624940
 30
0.0
 10
271.416780
 20
51.202665
 30
0.0
 10
270.875326
 20
51.515274
 30
0.0
  0
SPLINE
  5
32b
100
AcDbEntity
  8
0
 62
7
100
AcDbSpline
 70
8
 71
3
 72
8
 73
4
 74
0
 40
0
 40
0
 40
0
 40
0
 40
1
 40
1
 40
1
 40
1
 10
270.875326
 20
51.515274
 30
0.0
 10
270.333872
 20
51.827882
 30
0.0
 10
269.666773
 20
51.827882
 30
0.0
 10
269.125319
 20
51.515274
 30
0.0
  0
SPLINE
  5
32c
100
AcDbEntity
  8
0
 62
7
100
AcDbSpline
 70
8
 71
3
 72
8
 73
4
 74
0
 40
0
 40
0
 40
0
 40
0
 40
1
 40
1
 40
1
 40
1
 10
269.125319
 20
51.515274
 30
0.0
 10
268.583865
 20
51.202665
 30
0.0
 10
268.250316
 20
50.624940
 30
0.0
 10
268.250316
 20
49.999723
 30
0.0
  0
SPLINE
  5
32d
100
AcDbEntity
  8
0
 62
7
100
AcDbSpline
 70
8
 71
3
 72
8
 73
4
 74
0
 40
0
 40
0
 40
0
 40
0
 40
1
 40
1
 40
1
 40
1
 10
268.250316
 20
49.999723
 30
0.0
 10
268.250316
 20
49.374506
 30
0.0
 10
268.583865
 20
48.796781
 30
0.0
 10
269.125319
 20
48.484172
 30
0.0
  0
SPLINE
  5
32e
100
AcDbEntity
  8
0
 62
7
100
AcDbSpline
 70
8
 71
3
 72
8
 73
4
 74
0
 40
0
 40
0
 40
0
 40
0
 40
1
 40
1
 40
1
 40
1
 10
269.125319
 20
48.484172
 30
0.0
 10
269.666773
 20
48.171564
 30
0.0
 10
270.333872
 20
48.171564
 30
0.0
 10
270.875326
 20
48.484172
 30
0.0
  0
SPLINE
  5
32f
100
AcDbEntity
  8
0
 62
7
100
AcDbSpline
 70
8
 71
3
 72
8
 73
4
 74
0
 40
0
 40
0
 40
0
 40
0
 40
1
 40
1
 40
1
 40
1
 10
270.875326
 20
48.484172
 30
0.0
 10
271.416780
 20
48.796781
 30
0.0
 10
271.750330
 20
49.374506
 30
0.0
 10
271.750330
 20
49.999723
 30
0.0
  0
LWPOLYLINE
  5
330
100
AcDbEntity
  8
0
 62
7
100
AcDbPolyline
 90
1
 70
1
 10
191.750311
 20
69.999711
 30
0.0
  0
SPLINE
  5
331
100
AcDbEntity
  8
0
 62
7
100
AcDbSpline
 70
8
 71
3
 72
8
 73
4
 74
0
 40
0
 40
0
 40
0
 40
0
 40
1
 40
1
 40
1
 40
1
 10
171.750310
 20
69.999711
 30
0.0
 10
171.750310
 20
70.624926
 30
0.0
 10
171.416761
 20
71.202648
 30
0.0
 10
170.875309
 20
71.515256
 30
0.0
  0
SPLINE
  5
332
100
AcDbEntity
  8
0
 62
7
100
AcDbSpline
 70
8
 71
3
 72
8
 73
4
 74
0
 40
0
 40
0
 40
0
 40
0
 40
1
 40
1
 40
1
 40
1
 10
170.875309
 20
71.515256
 30
0.0
 10
170.333857
 20
71.827863
 30
0.0
 10
169.666761
 20
71.827863
 30
0.0
 10
169.125309
 20
71.515256
 30
0.0
  0
SPLINE
  5
333
100
AcDbEntity
  8
0
 62
7
100
AcDbSpline
 70
8
 71
3
 72
8
 73
4
 74
0
 40
0
 40
0
 40
0
 40
0
 40
1
 40
1
 40
1
 40
1
 10
169.125309
 20
71.515256
 30
0.0
 10
168.583857
 20
71.202648
 30
0.0
 10
168.250309
 20
70.624926
 30
0.0
 10
168.250309
 20
69.999711
 30
0.0
  0
SPLINE
  5
334
100
AcDbEntity
  8
0
 62
7
100
AcDbSpline
 70
8
 71
3
 72
8
 73
4
 74
0
 40
0
 40
0
 40
0
 40
0
 40
1
 40
1
 40
1
 40
1
 10
168.250309
 20
69.999711
 30
0.0
 10
168.250309
 20
69.374496
 30
0.0
 10
168.583857
 20
68.796773
 30
0.0
 10
169.125309
 20
68.484166
 30
0.0
  0
SPLINE
  5
335
100
AcDbEntity
  8
0
 62
7
100
AcDbSpline
 70
8
 71
3
 72
8
 73
4
 74
0
 40
0
 40
0
 40
0
 40
0
 40
1
 40
1
 40
1
 40
1
 10
169.125309
 20
68.484166
 30
0.0
 10
169.666761
 20
68.171558
 30
0.0
 10
170.333857
 20
68.171558
 30
0.0
 10
170.875309
 20
68.484166
 30
0.0
  0
SPLINE
  5
336
100
AcDbEntity
  8
0
 62
7
100
AcDbSpline
 70
8
 71
3
 72
8
 73
4
 74
0
 40
0
 40
0
 40
0
 40
0
 40
1
 40
1
 40
1
 40
1
 10
170.875309
 20
68.484166
 30
0.0
 10
171.416761
 20
68.796773
 30
0.0
 10
171.750310
 20
69.374496
 30
0.0
 10
171.750310
 20
69.999711
 30
0.0
  0
LWPOLYLINE
  5
337
100
AcDbEntity
  8
0
 62
7
100
AcDbPolyline
 90
1
 70
1
 10
271.750330
 20
49.999723
 30
0.0
  0
SPLINE
  5
338
100
AcDbEntity
  8
0
 62
7
100
AcDbSpline
 70
8
 71
3
 72
8
 73
4
 74
0
 40
0
 40
0
 40
0
 40
0
 40
1
 40
1
 40
1
 40
1
 10
171.750310
 20
189.999715
 30
0.0
 10
171.750310
 20
190.624930
 30
0.0
 10
171.416761
 20
191.202653
 30
0.0
 10
170.875309
 20
191.515260
 30
0.0
  0
SPLINE
  5
339
100
AcDbEntity
  8
0
 62
7
100
AcDbSpline
 70
8
 71
3
 72
8
 73
4
 74
0
 40
0
 40
0
 40
0
 40
0
 40
1
 40
1
 40
1
 40
1
 10
170.875309
 20
191.515260
 30
0.0
 10
170.333857
 20
191.827868
 30
0.0
 10
169.666761
 20
191.827868
 30
0.0
 10
169.125309
 20
191.515260
 30
0.0
  0
SPLINE
  5
33a
100
AcDbEntity
  8
0
 62
7
100
AcDbSpline
 70
8
 71
3
 72
8
 73
4
 74
0
 40
0
 40
0
 40
0
 40
0
 40
1
 40
1
 40
1
 40
1
 10
169.125309
 20
191.515260
 30
0.0
 10
168.583857
 20
191.202653
 30
0.0
 10
168.250309
 20
190.624930
 30
0.0
 10
168.250309
 20
189.999715
 30
0.0
  0
SPLINE
  5
33b
100
AcDbEntity
  8
0
 62
7
100
AcDbSpline
 70
8
 71
3
 72
8
 73
4
 74
0
 40
0
 40
0
 40
0
 40
0
 40
1
 40
1
 40
1
 40
1
 10
168.250309
 20
189.999715
 30
0.0
 10
168.250309
 20
189.374500
 30
0.0
 10
168.583857
 20
188.796778
 30
0.0
 10
169.125309
 20
188.484170
 30
0.0
  0
SPLINE
  5
33c
100
AcDbEntity
  8
0
 62
7
100
AcDbSpline
 70
8
 71
3
 72
8
 73
4
 74
0
 40
0
 40
0
 40
0
 40
0
 40
1
 40
1
 40
1
 40
1
 10
169.125309
 20
188.484170
 30
0.0
 10
169.666761
 20
188.171563
 30
0.0
 10
170.333857
 20
188.171563
 30
0.0
 10
170.875309
 20
188.484170
 30
0.0
  0
SPLINE
  5
33d
100
AcDbEntity
  8
0
 62
7
100
AcDbSpline
 70
8
 71
3
 72
8
 73
4
 74
0
 40
0
 40
0
 40
0
 40
0
 40
1
 40
1
 40
1
 40
1
 10
170.875309
 20
188.484170
 30
0.0
 10
171.416761
 20
188.796778
 30
0.0
 10
171.750310
 20
189.374500
 30
0.0
 10
171.750310
 20
189.999715
 30
0.0
  0
LWPOLYLINE
  5
33e
100
AcDbEntity
  8
0
 62
7
100
AcDbPolyline
 90
1
 70
1
 10
171.750310
 20
69.999711
 30
0.0
  0
SPLINE
  5
33f
100
AcDbEntity
  8
0
 62
7
100
AcDbSpline
 70
8
 71
3
 72
8
 73
4
 74
0
 40
0
 40
0
 40
0
 40
0
 40
1
 40
1
 40
1
 40
1
 10
251.750316
 20
129.999727
 30
0.0
 10
251.750316
 20
130.624942
 30
0.0
 10
251.416768
 20
131.202664
 30
0.0
 10
250.875316
 20
131.515272
 30
0.0
  0
SPLINE
  5
340
100
AcDbEntity
  8
0
 62
7
100
AcDbSpline
 70
8
 71
3
 72
8
 73
4
 74
0
 40
0
 40
0
 40
0
 40
0
 40
1
 40
1
 40
1
 40
1
 10
250.875316
 20
131.515272
 30
0.0
 10
250.333864
 20
131.827879
 30
0.0
 10
249.666767
 20
131.827879
 30
0.0
 10
249.125315
 20
131.515272
 30
0.0
  0
SPLINE
  5
341
100
AcDbEntity
  8
0
 62
7
100
AcDbSpline
 70
8
 71
3
 72
8
 73
4
 74
0
 40
0
 40
0
 40
0
 40
0
 40
1
 40
1
 40
1
 40
1
 10
249.125315
 20
131.515272
 30
0.0
 10
248.583863
 20
131.202664
 30
0.0
 10
248.250315
 20
130.624942
 30
0.0
 10
248.250315
 20
129.999727
 30
0.0
  0
SPLINE
  5
342
100
AcDbEntity
  8
0
 62
7
100
AcDbSpline
 70
8
 71
3
 72
8
 73
4
 74
0
 40
0
 40
0
 40
0
 40
0
 40
1
 40
1
 40
1
 40
1
 10
248.250315
 20
129.999727
 30
0.0
 10
248.250315
 20
129.374512
 30
0.0
 10
248.583863
 20
128.796789
 30
0.0
 10
249.125315
 20
128.484182
 30
0.0
  0
SPLINE
  5
343
100
AcDbEntity
  8
0
 62
7
100
AcDbSpline
 70
8
 71
3
 72
8
 73
4
 74
0
 40
0
 40
0
 40
0
 40
0
 40
1
 40
1
 40
1
 40
1
 10
249.125315
 20
128.484182
 30
0.0
 10
249.666767
 20
128.171574
 30
0.0
 10
250.333864
 20
128.171574
 30
0.0
 10
250.875316
 20
128.484182
 30
0.0
  0
SPLINE
  5
344
100
AcDbEntity
  8
0
 62
7
100
AcDbSpline
 70
8
 71
3
 72
8
 73
4
 74
0
 40
0
 40
0
 40
0
 40
0
 40
1
 40
1
 40
1
 40
1
 10
250.875316
 20
128.484182
 30
0.0
 10
251.416768
 20
128.796789
 30
0.0
 10
251.750316
 20
129.374512
 30
0.0
 10
251.750316
 20
129.999727
 30
0.0
  0
LWPOLYLINE
  5
345
100
AcDbEntity
  8
0
 62
7
100
AcDbPolyline
 90
1
 70
1
 10
171.750310
 20
189.999715
 30
0.0
  0
SPLINE
  5
346
100
AcDbEntity
  8
0
 62
7
100
AcDbSpline
 70
8
 71
3
 72
8
 73
4
 74
0
 40
0
 40
0
 40
0
 40
0
 40
1
 40
1
 40
1
 40
1
 10
271.750330
 20
129.999727
 30
0.0
 10
271.750330
 20
130.624944
 30
0.0
 10
271.416780
 20
131.202669
 30
0.0
 10
270.875326
 20
131.515277
 30
0.0
  0
SPLINE
  5
347
100
AcDbEntity
  8
0
 62
7
100
AcDbSpline
 70
8
 71
3
 72
8
 73
4
 74
0
 40
0
 40
0
 40
0
 40
0
 40
1
 40
1
 40
1
 40
1
 10
270.875326
 20
131.515277
 30
0.0
 10
270.333872
 20
131.827886
 30
0.0
 10
269.666773
 20
131.827886
 30
0.0
 10
269.125319
 20
131.515277
 30
0.0
  0
SPLINE
  5
348
100
AcDbEntity
  8
0
 62
7
100
AcDbSpline
 70
8
 71
3
 72
8
 73
4
 74
0
 40
0
 40
0
 40
0
 40
0
 40
1
 40
1
 40
1
 40
1
 10
269.125319
 20
131.515277
 30
0.0
 10
268.583865
 20
131.202669
 30
0.0
 10
268.250316
 20
130.624944
 30
0.0
 10
268.250316
 20
129.999727
 30
0.0
  0
SPLINE
  5
349
100
AcDbEntity
  8
0
 62
7
100
AcDbSpline
 70
8
 71
3
 72
8
 73
4
 74
0
 40
0
 40
0
 40
0
 40
0
 40
1
 40
1
 40
1
 40
1
 10
268.250316
 20
129.999727
 30
0.0
 10
268.250316
 20
129.374509
 30
0.0
 10
268.583865
 20
128.796785
 30
0.0
 10
269.125319
 20
128.484176
 30
0.0
  0
SPLINE
  5
34a
100
AcDbEntity
  8
0
 62
7
100
AcDbSpline
 70
8
 71
3
 72
8
 73
4
 74
0
 40
0
 40
0
 40
0
 40
0
 40
1
 40
1
 40
1
 40
1
 10
269.125319
 20
128.484176
 30
0.0
 10
269.666773
 20
128.171567
 30
0.0
 10
270.333872
 20
128.171567
 30
0.0
 10
270.875326
 20
128.484176
 30
0.0
  0
SPLINE
  5
34b
100
AcDbEntity
  8
0
 62
7
100
AcDbSpline
 70
8
 71
3
 72
8
 73
4
 74
0
 40
0
 40
0
 40
0
 40
0
 40
1
 40
1
 40
1
 40
1
 10
270.875326
 20
128.484176
 30
0.0
 10
271.416780
 20
128.796785
 30
0.0
 10
271.750330
 20
129.374509
 30
0.0
 10
271.750330
 20
129.999727
 30
0.0
  0
LWPOLYLINE
  5
34c
100
AcDbEntity
  8
0
 62
7
100
AcDbPolyline
 90
1
 70
1
 10
251.750316
 20
129.999727
 30
0.0
  0
SPLINE
  5
34d
100
AcDbEntity
  8
0
 62
7
100
AcDbSpline
 70
8
 71
3
 72
8
 73
4
 74
0
 40
0
 40
0
 40
0
 40
0
 40
1
 40
1
 40
1
 40
1
 10
291.750318
 20
149.999714
 30
0.0
 10
291.747746
 20
150.964388
 30
0.0
 10
290.965001
 20
151.745049
 30
0.0
 10
290.000324
 20
151.745049
 30
0.0
  0
SPLINE
  5
34e
100
AcDbEntity
  8
0
 62
7
100
AcDbSpline
 70
8
 71
3
 72
8
 73
4
 74
0
 40
0
 40
0
 40
0
 40
0
 40
1
 40
1
 40
1
 40
1
 10
290.000324
 20
151.745049
 30
0.0
 10
289.035647
 20
151.745049
 30
0.0
 10
288.252901
 20
150.964388
 30
0.0
 10
288.250330
 20
149.999714
 30
0.0
  0
SPLINE
  5
34f
100
AcDbEntity
  8
0
 62
7
100
AcDbSpline
 70
8
 71
3
 72
8
 73
4
 74
0
 40
0
 40
0
 40
0
 40
0
 40
1
 40
1
 40
1
 40
1
 10
288.250330
 20
149.999714
 30
0.0
 10
288.252901
 20
149.035041
 30
0.0
 10
289.035647
 20
148.254379
 30
0.0
 10
290.000324
 20
148.254379
 30
0.0
  0
SPLINE
  5
350
100
AcDbEntity
  8
0
 62
7
100
AcDbSpline
 70
8
 71
3
 72
8
 73
4
 74
0
 40
0
 40
0
 40
0
 40
0
 40
1
 40
1
 40
1
 40
1
 10
290.000324
 20
148.254379
 30
0.0
 10
290.965001
 20
148.254379
 30
0.0
 10
291.747746
 20
149.035041
 30
0.0
 10
291.750318
 20
149.999714
 30
0.0
  0
LWPOLYLINE
  5
351
100
AcDbEntity
  8
0
 62
7
100
AcDbPolyline
 90
1
 70
1
 10
271.750330
 20
129.999727
 30
0.0
  0
SPLINE
  5
352
100
AcDbEntity
  8
0
 62
7
100
AcDbSpline
 70
8
 71
3
 72
8
 73
4
 74
0
 40
0
 40
0
 40
0
 40
0
 40
1
 40
1
 40
1
 40
1
 10
171.750310
 20
109.999712
 30
0.0
 10
171.750310
 20
110.624927
 30
0.0
 10
171.416761
 20
111.202650
 30
0.0
 10
170.875309
 20
111.515257
 30
0.0
  0
SPLINE
  5
353
100
AcDbEntity
  8
0
 62
7
100
AcDbSpline
 70
8
 71
3
 72
8
 73
4
 74
0
 40
0
 40
0
 40
0
 40
0
 40
1
 40
1
 40
1
 40
1
 10
170.875309
 20
111.515257
 30
0.0
 10
170.333857
 20
111.827865
 30
0.0
 10
169.666761
 20
111.827865
 30
0.0
 10
169.125309
 20
111.515257
 30
0.0
  0
SPLINE
  5
354
100
AcDbEntity
  8
0
 62
7
100
AcDbSpline
 70
8
 71
3
 72
8
 73
4
 74
0
 40
0
 40
0
 40
0
 40
0
 40
1
 40
1
 40
1
 40
1
 10
169.125309
 20
111.515257
 30
0.0
 10
168.583857
 20
111.202650
 30
0.0
 10
168.250309
 20
110.624927
 30
0.0
 10
168.250309
 20
109.999712
 30
0.0
  0
SPLINE
  5
355
100
AcDbEntity
  8
0
 62
7
100
AcDbSpline
 70
8
 71
3
 72
8
 73
4
 74
0
 40
0
 40
0
 40
0
 40
0
 40
1
 40
1
 40
1
 40
1
 10
168.250309
 20
109.999712
 30
0.0
 10
168.250309
 20
109.374497
 30
0.0
 10
168.583857
 20
108.796775
 30
0.0
 10
169.125309
 20
108.484168
 30
0.0
  0
SPLINE
  5
356
100
AcDbEntity
  8
0
 62
7
100
AcDbSpline
 70
8
 71
3
 72
8
 73
4
 74
0
 40
0
 40
0
 40
0
 40
0
 40
1
 40
1
 40
1
 40
1
 10
169.125309
 20
108.484168
 30
0.0
 10
169.666761
 20
108.171560
 30
0.0
 10
170.333857
 20
108.171560
 30
0.0
 10
170.875309
 20
108.484168
 30
0.0
  0
SPLINE
  5
357
100
AcDbEntity
  8
0
 62
7
100
AcDbSpline
 70
8
 71
3
 72
8
 73
4
 74
0
 40
0
 40
0
 40
0
 40
0
 40
1
 40
1
 40
1
 40
1
 10
170.875309
 20
108.484168
 30
0.0
 10
171.416761
 20
108.796775
 30
0.0
 10
171.750310
 20
109.374497
 30
0.0
 10
171.750310
 20
109.999712
 30
0.0
  0
LWPOLYLINE
  5
358
100
AcDbEntity
  8
0
 62
7
100
AcDbPolyline
 90
1
 70
1
 10
291.750318
 20
149.999714
 30
0.0
  0
SPLINE
  5
359
100
AcDbEntity
  8
0
 62
7
100
AcDbSpline
 70
8
 71
3
 72
8
 73
4
 74
0
 40
0
 40
0
 40
0
 40
0
 40
1
 40
1
 40
1
 40
1
 10
231.750312
 20
109.999712
 30
0.0
 10
231.749392
 20
110.965560
 30
0.0
 10
230.966161
 20
111.748046
 30
0.0
 10
230.000313
 20
111.748046
 30
0.0
  0
SPLINE
  5
35a
100
AcDbEntity
  8
0
 62
7
100
AcDbSpline
 70
8
 71
3
 72
8
 73
4
 74
0
 40
0
 40
0
 40
0
 40
0
 40
1
 40
1
 40
1
 40
1
 10
230.000313
 20
111.748046
 30
0.0
 10
229.034466
 20
111.748046
 30
0.0
 10
228.251234
 20
110.965560
 30
0.0
 10
228.250314
 20
109.999712
 30
0.0
  0
SPLINE
  5
35b
100
AcDbEntity
  8
0
 62
7
100
AcDbSpline
 70
8
 71
3
 72
8
 73
4
 74
0
 40
0
 40
0
 40
0
 40
0
 40
1
 40
1
 40
1
 40
1
 10
228.250314
 20
109.999712
 30
0.0
 10
228.251234
 20
109.033865
 30
0.0
 10
229.034466
 20
108.251379
 30
0.0
 10
230.000313
 20
108.251379
 30
0.0
  0
SPLINE
  5
35c
100
AcDbEntity
  8
0
 62
7
100
AcDbSpline
 70
8
 71
3
 72
8
 73
4
 74
0
 40
0
 40
0
 40
0
 40
0
 40
1
 40
1
 40
1
 40
1
 10
230.000313
 20
108.251379
 30
0.0
 10
230.966161
 20
108.251379
 30
0.0
 10
231.749392
 20
109.033865
 30
0.0
 10
231.750312
 20
109.999712
 30
0.0
  0
LWPOLYLINE
  5
35d
100
AcDbEntity
  8
0
 62
7
100
AcDbPolyline
 90
1
 70
1
 10
171.750310
 20
109.999712
 30
0.0
  0
SPLINE
  5
35e
100
AcDbEntity
  8
0
 62
7
100
AcDbSpline
 70
8
 71
3
 72
8
 73
4
 74
0
 40
0
 40
0
 40
0
 40
0
 40
1
 40
1
 40
1
 40
1
 10
191.750311
 20
49.999723
 30
0.0
 10
191.750311
 20
50.624938
 30
0.0
 10
191.416762
 20
51.202661
 30
0.0
 10
190.875310
 20
51.515268
 30
0.0
  0
SPLINE
  5
35f
100
AcDbEntity
  8
0
 62
7
100
AcDbSpline
 70
8
 71
3
 72
8
 73
4
 74
0
 40
0
 40
0
 40
0
 40
0
 40
1
 40
1
 40
1
 40
1
 10
190.875310
 20
51.515268
 30
0.0
 10
190.333858
 20
51.827876
 30
0.0
 10
189.666762
 20
51.827876
 30
0.0
 10
189.125310
 20
51.515268
 30
0.0
  0
SPLINE
  5
360
100
AcDbEntity
  8
0
 62
7
100
AcDbSpline
 70
8
 71
3
 72
8
 73
4
 74
0
 40
0
 40
0
 40
0
 40
0
 40
1
 40
1
 40
1
 40
1
 10
189.125310
 20
51.515268
 30
0.0
 10
188.583858
 20
51.202661
 30
0.0
 10
188.250309
 20
50.624938
 30
0.0
 10
188.250309
 20
49.999723
 30
0.0
  0
SPLINE
  5
361
100
AcDbEntity
  8
0
 62
7
100
AcDbSpline
 70
8
 71
3
 72
8
 73
4
 74
0
 40
0
 40
0
 40
0
 40
0
 40
1
 40
1
 40
1
 40
1
 10
188.250309
 20
49.999723
 30
0.0
 10
188.250309
 20
49.374508
 30
0.0
 10
188.583858
 20
48.796786
 30
0.0
 10
189.125310
 20
48.484178
 30
0.0
  0
SPLINE
  5
362
100
AcDbEntity
  8
0
 62
7
100
AcDbSpline
 70
8
 71
3
 72
8
 73
4
 74
0
 40
0
 40
0
 40
0
 40
0
 40
1
 40
1
 40
1
 40
1
 10
189.125310
 20
48.484178
 30
0.0
 10
189.666762
 20
48.171571
 30
0.0
 10
190.333858
 20
48.171571
 30
0.0
 10
190.875310
 20
48.484178
 30
0.0
  0
SPLINE
  5
363
100
AcDbEntity
  8
0
 62
7
100
AcDbSpline
 70
8
 71
3
 72
8
 73
4
 74
0
 40
0
 40
0
 40
0
 40
0
 40
1
 40
1
 40
1
 40
1
 10
190.875310
 20
48.484178
 30
0.0
 10
191.416762
 20
48.796786
 30
0.0
 10
191.750311
 20
49.374508
 30
0.0
 10
191.750311
 20
49.999723
 30
0.0
  0
LWPOLYLINE
  5
364
100
AcDbEntity
  8
0
 62
7
100
AcDbPolyline
 90
1
 70
1
 10
231.750312
 20
109.999712
 30
0.0
  0
SPLINE
  5
365
100
AcDbEntity
  8
0
 62
7
100
AcDbSpline
 70
8
 71
3
 72
8
 73
4
 74
0
 40
0
 40
0
 40
0
 40
0
 40
1
 40
1
 40
1
 40
1
 10
111.750307
 20
49.999723
 30
0.0
 10
111.750307
 20
50.966222
 30
0.0
 10
110.966805
 20
51.749723
 30
0.0
 10
110.000306
 20
51.749723
 30
0.0
  0
SPLINE
  5
366
100
AcDbEntity
  8
0
 62
7
100
AcDbSpline
 70
8
 71
3
 72
8
 73
4
 74
0
 40
0
 40
0
 40
0
 40
0
 40
1
 40
1
 40
1
 40
1
 10
110.000306
 20
51.749723
 30
0.0
 10
109.033808
 20
51.749723
 30
0.0
 10
108.250306
 20
50.966222
 30
0.0
 10
108.250306
 20
49.999723
 30
0.0
  0
SPLINE
  5
367
100
AcDbEntity
  8
0
 62
7
100
AcDbSpline
 70
8
 71
3
 72
8
 73
4
 74
0
 40
0
 40
0
 40
0
 40
0
 40
1
 40
1
 40
1
 40
1
 10
108.250306
 20
49.999723
 30
0.0
 10
108.250306
 20
49.033224
 30
0.0
 10
109.033808
 20
48.249723
 30
0.0
 10
110.000306
 20
48.249723
 30
0.0
  0
SPLINE
  5
368
100
AcDbEntity
  8
0
 62
7
100
AcDbSpline
 70
8
 71
3
 72
8
 73
4
 74
0
 40
0
 40
0
 40
0
 40
0
 40
1
 40
1
 40
1
 40
1
 10
110.000306
 20
48.249723
 30
0.0
 10
110.966805
 20
48.249723
 30
0.0
 10
111.750307
 20
49.033224
 30
0.0
 10
111.750307
 20
49.999723
 30
0.0
  0
LWPOLYLINE
  5
369
100
AcDbEntity
  8
0
 62
7
100
AcDbPolyline
 90
1
 70
1
 10
191.750311
 20
49.999723
 30
0.0
  0
SPLINE
  5
36a
100
AcDbEntity
  8
0
 62
7
100
AcDbSpline
 70
8
 71
3
 72
8
 73
4
 74
0
 40
0
 40
0
 40
0
 40
0
 40
1
 40
1
 40
1
 40
1
 10
151.750309
 20
9.999721
 30
0.0
 10
151.750309
 20
10.966220
 30
0.0
 10
150.966807
 20
11.749722
 30
0.0
 10
150.000308
 20
11.749722
 30
0.0
  0
SPLINE
  5
36b
100
AcDbEntity
  8
0
 62
7
100
AcDbSpline
 70
8
 71
3
 72
8
 73
4
 74
0
 40
0
 40
0
 40
0
 40
0
 40
1
 40
1
 40
1
 40
1
 10
150.000308
 20
11.749722
 30
0.0
 10
149.033810
 20
11.749722
 30
0.0
 10
148.250308
 20
10.966220
 30
0.0
 10
148.250308
 20
9.999721
 30
0.0
  0
SPLINE
  5
36c
100
AcDbEntity
  8
0
 62
7
100
AcDbSpline
 70
8
 71
3
 72
8
 73
4
 74
0
 40
0
 40
0
 40
0
 40
0
 40
1
 40
1
 40
1
 40
1
 10
148.250308
 20
9.999721
 30
0.0
 10
148.250308
 20
9.033223
 30
0.0
 10
149.033810
 20
8.249721
 30
0.0
 10
150.000308
 20
8.249721
 30
0.0
  0
SPLINE
  5
36d
100
AcDbEntity
  8
0
 62
7
100
AcDbSpline
 70
8
 71
3
 72
8
 73
4
 74
0
 40
0
 40
0
 40
0
 40
0
 40
1
 40
1
 40
1
 40
1
 10
150.000308
 20
8.249721
 30
0.0
 10
150.966807
 20
8.249721
 30
0.0
 10
151.750309
 20
9.033223
 30
0.0
 10
151.750309
 20
9.999721
 30
0.0
  0
LWPOLYLINE
  5
36e
100
AcDbEntity
  8
0
 62
7
100
AcDbPolyline
 90
1
 70
1
 10
111.750307
 20
49.999723
 30
0.0
  0
SPLINE
  5
36f
100
AcDbEntity
  8
0
 62
7
100
AcDbSpline
 70
8
 71
3
 72
8
 73
4
 74
0
 40
0
 40
0
 40
0
 40
0
 40
1
 40
1
 40
1
 40
1
 10
111.750307
 20
69.999711
 30
0.0
 10
111.750307
 20
70.966209
 30
0.0
 10
110.966805
 20
71.749711
 30
0.0
 10
110.000306
 20
71.749711
 30
0.0
  0
SPLINE
  5
370
100
AcDbEntity
  8
0
 62
7
100
AcDbSpline
 70
8
 71
3
 72
8
 73
4
 74
0
 40
0
 40
0
 40
0
 40
0
 40
1
 40
1
 40
1
 40
1
 10
110.000306
 20
71.749711
 30
0.0
 10
109.033808
 20
71.749711
 30
0.0
 10
108.250306
 20
70.966209
 30
0.0
 10
108.250306
 20
69.999711
 30
0.0
  0
SPLINE
  5
371
100
AcDbEntity
  8
0
 62
7
100
AcDbSpline
 70
8
 71
3
 72
8
 73
4
 74
0
 40
0
 40
0
 40
0
 40
0
 40
1
 40
1
 40
1
 40
1
 10
108.250306
 20
69.999711
 30
0.0
 10
108.250306
 20
69.033212
 30
0.0
 10
109.033808
 20
68.249710
 30
0.0
 10
110.000306
 20
68.249710
 30
0.0
  0
SPLINE
  5
372
100
AcDbEntity
  8
0
 62
7
100
AcDbSpline
 70
8
 71
3
 72
8
 73
4
 74
0
 40
0
 40
0
 40
0
 40
0
 40
1
 40
1
 40
1
 40
1
 10
110.000306
 20
68.249710
 30
0.0
 10
110.966805
 20
68.249710
 30
0.0
 10
111.750307
 20
69.033212
 30
0.0
 10
111.750307
 20
69.999711
 30
0.0
  0
LWPOLYLINE
  5
373
100
AcDbEntity
  8
0
 62
7
100
AcDbPolyline
 90
1
 70
1
 10
151.750309
 20
9.999721
 30
0.0
  0
SPLINE
  5
374
100
AcDbEntity
  8
0
 62
7
100
AcDbSpline
 70
8
 71
3
 72
8
 73
4
 74
0
 40
0
 40
0
 40
0
 40
0
 40
1
 40
1
 40
1
 40
1
 10
31.750293
 20
49.999723
 30
0.0
 10
31.747749
 20
50.964416
 30
0.0
 10
30.964996
 20
51.745108
 30
0.0
 10
30.000299
 20
51.745108
 30
0.0
  0
SPLINE
  5
375
100
AcDbEntity
  8
0
 62
7
100
AcDbSpline
 70
8
 71
3
 72
8
 73
4
 74
0
 40
0
 40
0
 40
0
 40
0
 40
1
 40
1
 40
1
 40
1
 10
30.000299
 20
51.745108
 30
0.0
 10
29.035602
 20
51.745108
 30
0.0
 10
28.252849
 20
50.964416
 30
0.0
 10
28.250305
 20
49.999723
 30
0.0
  0
SPLINE
  5
376
100
AcDbEntity
  8
0
 62
7
100
AcDbSpline
 70
8
 71
3
 72
8
 73
4
 74
0
 40
0
 40
0
 40
0
 40
0
 40
1
 40
1
 40
1
 40
1
 10
28.250305
 20
49.999723
 30
0.0
 10
28.252849
 20
49.035030
 30
0.0
 10
29.035602
 20
48.254338
 30
0.0
 10
30.000299
 20
48.254338
 30
0.0
  0
SPLINE
  5
377
100
AcDbEntity
  8
0
 62
7
100
AcDbSpline
 70
8
 71
3
 72
8
 73
4
 74
0
 40
0
 40
0
 40
0
 40
0
 40
1
 40
1
 40
1
 40
1
 10
30.000299
 20
48.254338
 30
0.0
 10
30.964996
 20
48.254338
 30
0.0
 10
31.747749
 20
49.035030
 30
0.0
 10
31.750293
 20
49.999723
 30
0.0
  0
LWPOLYLINE
  5
378
100
AcDbEntity
  8
0
 62
7
100
AcDbPolyline
 90
1
 70
1
 10
111.750307
 20
69.999711
 30
0.0
  0
SPLINE
  5
379
100
AcDbEntity
  8
0
 62
7
100
AcDbSpline
 70
8
 71
3
 72
8
 73
4
 74
0
 40
0
 40
0
 40
0
 40
0
 40
1
 40
1
 40
1
 40
1
 10
31.750293
 20
89.999725
 30
0.0
 10
31.747749
 20
90.964418
 30
0.0
 10
30.964996
 20
91.745110
 30
0.0
 10
30.000299
 20
91.745110
 30
0.0
  0
SPLINE
  5
37a
100
AcDbEntity
  8
0
 62
7
100
AcDbSpline
 70
8
 71
3
 72
8
 73
4
 74
0
 40
0
 40
0
 40
0
 40
0
 40
1
 40
1
 40
1
 40
1
 10
30.000299
 20
91.745110
 30
0.0
 10
29.035602
 20
91.745110
 30
0.0
 10
28.252849
 20
90.964418
 30
0.0
 10
28.250305
 20
89.999725
 30
0.0
  0
SPLINE
  5
37b
100
AcDbEntity
  8
0
 62
7
100
AcDbSpline
 70
8
 71
3
 72
8
 73
4
 74
0
 40
0
 40
0
 40
0
 40
0
 40
1
 40
1
 40
1
 40
1
 10
28.250305
 20
89.999725
 30
0.0
 10
28.252849
 20
89.035032
 30
0.0
 10
29.035602
 20
88.254340
 30
0.0
 10
30.000299
 20
88.254340
 30
0.0
  0
SPLINE
  5
37c
100
AcDbEntity
  8
0
 62
7
100
AcDbSpline
 70
8
 71
3
 72
8
 73
4
 74
0
 40
0
 40
0
 40
0
 40
0
 40
1
 40
1
 40
1
 40
1
 10
30.000299
 20
88.254340
 30
0.0
 10
30.964996
 20
88.254340
 30
0.0
 10
31.747749
 20
89.035032
 30
0.0
 10
31.750293
 20
89.999725
 30
0.0
  0
LWPOLYLINE
  5
37d
100
AcDbEntity
  8
0
 62
7
100
AcDbPolyline
 90
1
 70
1
 10
31.750293
 20
49.999723
 30
0.0
  0
SPLINE
  5
37e
100
AcDbEntity
  8
0
 62
7
100
AcDbSpline
 70
8
 71
3
 72
8
 73
4
 74
0
 40
0
 40
0
 40
0
 40
0
 40
1
 40
1
 40
1
 40
1
 10
11.750306
 20
69.999711
 30
0.0
 10
11.750306
 20
70.624928
 30
0.0
 10
11.416756
 20
71.202653
 30
0.0
 10
10.875302
 20
71.515261
 30
0.0
  0
SPLINE
  5
37f
100
AcDbEntity
  8
0
 62
7
100
AcDbSpline
 70
8
 71
3
 72
8
 73
4
 74
0
 40
0
 40
0
 40
0
 40
0
 40
1
 40
1
 40
1
 40
1
 10
10.875302
 20
71.515261
 30
0.0
 10
10.333848
 20
71.827870
 30
0.0
 10
9.666749
 20
71.827870
 30
0.0
 10
9.125295
 20
71.515261
 30
0.0
  0
SPLINE
  5
380
100
AcDbEntity
  8
0
 62
7
100
AcDbSpline
 70
8
 71
3
 72
8
 73
4
 74
0
 40
0
 40
0
 40
0
 40
0
 40
1
 40
1
 40
1
 40
1
 10
9.125295
 20
71.515261
 30
0.0
 10
8.583841
 20
71.202653
 30
0.0
 10
8.250291
 20
70.624928
 30
0.0
 10
8.250291
 20
69.999711
 30
0.0
  0
SPLINE
  5
381
100
AcDbEntity
  8
0
 62
7
100
AcDbSpline
 70
8
 71
3
 72
8
 73
4
 74
0
 40
0
 40
0
 40
0
 40
0
 40
1
 40
1
 40
1
 40
1
 10
8.250291
 20
69.999711
 30
0.0
 10
8.250291
 20
69.374493
 30
0.0
 10
8.583841
 20
68.796769
 30
0.0
 10
9.125295
 20
68.484160
 30
0.0
  0
SPLINE
  5
382
100
AcDbEntity
  8
0
 62
7
100
AcDbSpline
 70
8
 71
3
 72
8
 73
4
 74
0
 40
0
 40
0
 40
0
 40
0
 40
1
 40
1
 40
1
 40
1
 10
9.125295
 20
68.484160
 30
0.0
 10
9.666749
 20
68.171551
 30
0.0
 10
10.333848
 20
68.171551
 30
0.0
 10
10.875302
 20
68.484160
 30
0.0
  0
SPLINE
  5
383
100
AcDbEntity
  8
0
 62
7
100
AcDbSpline
 70
8
 71
3
 72
8
 73
4
 74
0
 40
0
 40
0
 40
0
 40
0
 40
1
 40
1
 40
1
 40
1
 10
10.875302
 20
68.484160
 30
0.0
 10
11.416756
 20
68.796769
 30
0.0
 10
11.750306
 20
69.374493
 30
0.0
 10
11.750306
 20
69.999711
 30
0.0
  0
LWPOLYLINE
  5
384
100
AcDbEntity
  8
0
 62
7
100
AcDbPolyline
 90
1
 70
1
 10
31.750293
 20
89.999725
 30
0.0
  0
SPLINE
  5
385
100
AcDbEntity
  8
0
 62
7
100
AcDbSpline
 70
8
 71
3
 72
8
 73
4
 74
0
 40
0
 40
0
 40
0
 40
0
 40
1
 40
1
 40
1
 40
1
 10
111.750307
 20
109.999712
 30
0.0
 10
111.750307
 20
110.966211
 30
0.0
 10
110.966805
 20
111.749713
 30
0.0
 10
110.000306
 20
111.749713
 30
0.0
  0
SPLINE
  5
386
100
AcDbEntity
  8
0
 62
7
100
AcDbSpline
 70
8
 71
3
 72
8
 73
4
 74
0
 40
0
 40
0
 40
0
 40
0
 40
1
 40
1
 40
1
 40
1
 10
110.000306
 20
111.749713
 30
0.0
 10
109.033808
 20
111.749713
 30
0.0
 10
108.250306
 20
110.966211
 30
0.0
 10
108.250306
 20
109.999712
 30
0.0
  0
SPLINE
  5
387
100
AcDbEntity
  8
0
 62
7
100
AcDbSpline
 70
8
 71
3
 72
8
 73
4
 74
0
 40
0
 40
0
 40
0
 40
0
 40
1
 40
1
 40
1
 40
1
 10
108.250306
 20
109.999712
 30
0.0
 10
108.250306
 20
109.033214
 30
0.0
 10
109.033808
 20
108.249712
 30
0.0
 10
110.000306
 20
108.249712
 30
0.0
  0
SPLINE
  5
388
100
AcDbEntity
  8
0
 62
7
100
AcDbSpline
 70
8
 71
3
 72
8
 73
4
 74
0
 40
0
 40
0
 40
0
 40
0
 40
1
 40
1
 40
1
 40
1
 10
110.000306
 20
108.249712
 30
0.0
 10
110.966805
 20
108.249712
 30
0.0
 10
111.750307
 20
109.033214
 30
0.0
 10
111.750307
 20
109.999712
 30
0.0
  0
LWPOLYLINE
  5
389
100
AcDbEntity
  8
0
 62
7
100
AcDbPolyline
 90
1
 70
1
 10
11.750306
 20
69.999711
 30
0.0
  0
SPLINE
  5
38a
100
AcDbEntity
  8
0
 62
7
100
AcDbSpline
 70
8
 71
3
 72
8
 73
4
 74
0
 40
0
 40
0
 40
0
 40
0
 40
1
 40
1
 40
1
 40
1
 10
131.750308
 20
109.999712
 30
0.0
 10
131.750308
 20
110.624927
 30
0.0
 10
131.416760
 20
111.202650
 30
0.0
 10
130.875308
 20
111.515257
 30
0.0
  0
SPLINE
  5
38b
100
AcDbEntity
  8
0
 62
7
100
AcDbSpline
 70
8
 71
3
 72
8
 73
4
 74
0
 40
0
 40
0
 40
0
 40
0
 40
1
 40
1
 40
1
 40
1
 10
130.875308
 20
111.515257
 30
0.0
 10
130.333856
 20
111.827865
 30
0.0
 10
129.666759
 20
111.827865
 30
0.0
 10
129.125307
 20
111.515257
 30
0.0
  0
SPLINE
  5
38c
100
AcDbEntity
  8
0
 62
7
100
AcDbSpline
 70
8
 71
3
 72
8
 73
4
 74
0
 40
0
 40
0
 40
0
 40
0
 40
1
 40
1
 40
1
 40
1
 10
129.125307
 20
111.515257
 30
0.0
 10
128.583855
 20
111.202650
 30
0.0
 10
128.250307
 20
110.624927
 30
0.0
 10
128.250307
 20
109.999712
 30
0.0
  0
SPLINE
  5
38d
100
AcDbEntity
  8
0
 62
7
100
AcDbSpline
 70
8
 71
3
 72
8
 73
4
 74
0
 40
0
 40
0
 40
0
 40
0
 40
1
 40
1
 40
1
 40
1
 10
128.250307
 20
109.999712
 30
0.0
 10
128.250307
 20
109.374497
 30
0.0
 10
128.583855
 20
108.796775
 30
0.0
 10
129.125307
 20
108.484168
 30
0.0
  0
SPLINE
  5
38e
100
AcDbEntity
  8
0
 62
7
100
AcDbSpline
 70
8
 71
3
 72
8
 73
4
 74
0
 40
0
 40
0
 40
0
 40
0
 40
1
 40
1
 40
1
 40
1
 10
129.125307
 20
108.484168
 30
0.0
 10
129.666759
 20
108.171560
 30
0.0
 10
130.333856
 20
108.171560
 30
0.0
 10
130.875308
 20
108.484168
 30
0.0
  0
SPLINE
  5
38f
100
AcDbEntity
  8
0
 62
7
100
AcDbSpline
 70
8
 71
3
 72
8
 73
4
 74
0
 40
0
 40
0
 40
0
 40
0
 40
1
 40
1
 40
1
 40
1
 10
130.875308
 20
108.484168
 30
0.0
 10
131.416760
 20
108.796775
 30
0.0
 10
131.750308
 20
109.374497
 30
0.0
 10
131.750308
 20
109.999712
 30
0.0
  0
LWPOLYLINE
  5
390
100
AcDbEntity
  8
0
 62
7
100
AcDbPolyline
 90
1
 70
1
 10
111.750307
 20
109.999712
 30
0.0
  0
SPLINE
  5
391
100
AcDbEntity
  8
0
 62
7
100
AcDbSpline
 70
8
 71
3
 72
8
 73
4
 74
0
 40
0
 40
0
 40
0
 40
0
 40
1
 40
1
 40
1
 40
1
 10
275.000313
 20
2.999719
 30
0.0
 10
275.000312
 20
2.204068
 30
0.0
 10
275.316383
 20
1.441004
 30
0.0
 10
275.878993
 20
0.878394
 30
0.0
  0
SPLINE
  5
392
100
AcDbEntity
  8
0
 62
7
100
AcDbSpline
 70
8
 71
3
 72
8
 73
4
 74
0
 40
0
 40
0
 40
0
 40
0
 40
1
 40
1
 40
1
 40
1
 10
275.878993
 20
0.878394
 30
0.0
 10
276.441603
 20
0.315784
 30
0.0
 10
277.204667
 20
-0.000287
 30
0.0
 10
278.000318
 20
-0.000286
 30
0.0
  0
LWPOLYLINE
  5
393
100
AcDbEntity
  8
0
 62
7
100
AcDbPolyline
 90
1
 70
1
 10
131.750308
 20
109.999712
 30
0.0
  0
SPLINE
  5
394
100
AcDbEntity
  8
0
 62
7
100
AcDbSpline
 70
8
 71
3
 72
8
 73
4
 74
0
 40
0
 40
0
 40
0
 40
0
 40
1
 40
1
 40
1
 40
1
 10
285.000320
 20
-0.000286
 30
0.0
 10
293.284589
 20
-0.000284
 30
0.0
 10
300.000316
 20
6.715443
 30
0.0
 10
300.000318
 20
14.999712
 30
0.0
  0
LWPOLYLINE
  5
395
100
AcDbEntity
  8
0
 62
7
100
AcDbPolyline
 90
2
 70
0
 10
278.000318
 20
-0.000286
 30
0.0
 10
285.000320
 20
-0.000286
 30
0.0
  0
SPLINE
  5
396
100
AcDbEntity
  8
0
 62
7
100
AcDbSpline
 70
8
 71
3
 72
8
 73
4
 74
0
 40
0
 40
0
 40
0
 40
0
 40
1
 40
1
 40
1
 40
1
 10
300.000318
 20
184.999725
 30
0.0
 10
300.000316
 20
193.283994
 30
0.0
 10
293.284589
 20
199.999721
 30
0.0
 10
285.000320
 20
199.999722
 30
0.0
  0
LWPOLYLINE
  5
397
100
AcDbEntity
  8
0
 62
7
100
AcDbPolyline
 90
2
 70
0
 10
300.000318
 20
14.999712
 30
0.0
 10
300.000318
 20
184.999725
 30
0.0
  0
SPLINE
  5
398
100
AcDbEntity
  8
0
 62
7
100
AcDbSpline
 70
8
 71
3
 72
8
 73
4
 74
0
 40
0
 40
0
 40
0
 40
0
 40
1
 40
1
 40
1
 40
1
 10
278.000318
 20
199.999722
 30
0.0
 10
277.204667
 20
199.999724
 30
0.0
 10
276.441603
 20
199.683653
 30
0.0
 10
275.878993
 20
199.121043
 30
0.0
  0
SPLINE
  5
399
100
AcDbEntity
  8
0
 62
7
100
AcDbSpline
 70
8
 71
3
 72
8
 73
4
 74
0
 40
0
 40
0
 40
0
 40
0
 40
1
 40
1
 40
1
 40
1
 10
275.878993
 20
199.121043
 30
0.0
 10
275.316383
 20
198.558432
 30
0.0
 10
275.000312
 20
197.795369
 30
0.0
 10
275.000313
 20
196.999718
 30
0.0
  0
LWPOLYLINE
  5
39a
100
AcDbEntity
  8
0
 62
7
100
AcDbPolyline
 90
2
 70
0
 10
285.000320
 20
199.999722
 30
0.0
 10
278.000318
 20
199.999722
 30
0.0
  0
SPLINE
  5
39b
100
AcDbEntity
  8
0
 62
7
100
AcDbSpline
 70
8
 71
3
 72
8
 73
4
 74
0
 40
0
 40
0
 40
0
 40
0
 40
1
 40
1
 40
1
 40
1
 10
275.000313
 20
162.999726
 30
0.0
 10
275.000314
 20
162.204075
 30
0.0
 10
274.684244
 20
161.441011
 30
0.0
 10
274.121633
 20
160.878401
 30
0.0
  0
SPLINE
  5
39c
100
AcDbEntity
  8
0
 62
7
100
AcDbSpline
 70
8
 71
3
 72
8
 73
4
 74
0
 40
0
 40
0
 40
0
 40
0
 40
1
 40
1
 40
1
 40
1
 10
274.121633
 20
160.878401
 30
0.0
 10
273.559023
 20
160.315791
 30
0.0
 10
272.795959
 20
159.999720
 30
0.0
 10
272.000308
 20
159.999721
 30
0.0
  0
LWPOLYLINE
  5
39d
100
AcDbEntity
  8
0
 62
7
100
AcDbPolyline
 90
2
 70
0
 10
275.000313
 20
196.999718
 30
0.0
 10
275.000313
 20
162.999726
 30
0.0
  0
SPLINE
  5
39e
100
AcDbEntity
  8
0
 62
7
100
AcDbSpline
 70
8
 71
3
 72
8
 73
4
 74
0
 40
0
 40
0
 40
0
 40
0
 40
1
 40
1
 40
1
 40
1
 10
188.000310
 20
159.999721
 30
0.0
 10
187.204660
 20
159.999722
 30
0.0
 10
186.441597
 20
160.315793
 30
0.0
 10
185.878988
 20
160.878403
 30
0.0
  0
SPLINE
  5
39f
100
AcDbEntity
  8
0
 62
7
100
AcDbSpline
 70
8
 71
3
 72
8
 73
4
 74
0
 40
0
 40
0
 40
0
 40
0
 40
1
 40
1
 40
1
 40
1
 10
185.878988
 20
160.878403
 30
0.0
 10
185.316379
 20
161.441013
 30
0.0
 10
185.000309
 20
162.204076
 30
0.0
 10
185.000310
 20
162.999726
 30
0.0
  0
LWPOLYLINE
  5
3a0
100
AcDbEntity
  8
0
 62
7
100
AcDbPolyline
 90
2
 70
0
 10
272.000308
 20
159.999721
 30
0.0
 10
188.000310
 20
159.999721
 30
0.0
  0
SPLINE
  5
3a1
100
AcDbEntity
  8
0
 62
7
100
AcDbSpline
 70
8
 71
3
 72
8
 73
4
 74
0
 40
0
 40
0
 40
0
 40
0
 40
1
 40
1
 40
1
 40
1
 10
185.000310
 20
196.999718
 30
0.0
 10
185.000312
 20
197.795368
 30
0.0
 10
184.684242
 20
198.558431
 30
0.0
 10
184.121633
 20
199.121041
 30
0.0
  0
SPLINE
  5
3a2
100
AcDbEntity
  8
0
 62
7
100
AcDbSpline
 70
8
 71
3
 72
8
 73
4
 74
0
 40
0
 40
0
 40
0
 40
0
 40
1
 40
1
 40
1
 40
1
 10
184.121633
 20
199.121041
 30
0.0
 10
183.559023
 20
199.683651
 30
0.0
 10
182.795961
 20
199.999722
 30
0.0
 10
182.000311
 20
199.999722
 30
0.0
  0
LWPOLYLINE
  5
3a3
100
AcDbEntity
  8
0
 62
7
100
AcDbPolyline
 90
2
 70
0
 10
185.000310
 20
162.999726
 30
0.0
 10
185.000310
 20
196.999718
 30
0.0
  0
SPLINE
  5
3a4
100
AcDbEntity
  8
0
 62
7
100
AcDbSpline
 70
8
 71
3
 72
8
 73
4
 74
0
 40
0
 40
0
 40
0
 40
0
 40
1
 40
1
 40
1
 40
1
 10
118.000306
 20
199.999722
 30
0.0
 10
117.204655
 20
199.999722
 30
0.0
 10
116.441593
 20
199.683651
 30
0.0
 10
115.878984
 20
199.121041
 30
0.0
  0
SPLINE
  5
3a5
100
AcDbEntity
  8
0
 62
7
100
AcDbSpline
 70
8
 71
3
 72
8
 73
4
 74
0
 40
0
 40
0
 40
0
 40
0
 40
1
 40
1
 40
1
 40
1
 10
115.878984
 20
199.121041
 30
0.0
 10
115.316375
 20
198.558431
 30
0.0
 10
115.000305
 20
197.795368
 30
0.0
 10
115.000306
 20
196.999718
 30
0.0
  0
LWPOLYLINE
  5
3a6
100
AcDbEntity
  8
0
 62
7
100
AcDbPolyline
 90
2
 70
0
 10
182.000311
 20
199.999722
 30
0.0
 10
118.000306
 20
199.999722
 30
0.0
  0
SPLINE
  5
3a7
100
AcDbEntity
  8
0
 62
7
100
AcDbSpline
 70
8
 71
3
 72
8
 73
4
 74
0
 40
0
 40
0
 40
0
 40
0
 40
1
 40
1
 40
1
 40
1
 10
115.000306
 20
162.999726
 30
0.0
 10
115.000307
 20
162.204076
 30
0.0
 10
114.684237
 20
161.441013
 30
0.0
 10
114.121628
 20
160.878403
 30
0.0
  0
SPLINE
  5
3a8
100
AcDbEntity
  8
0
 62
7
100
AcDbSpline
 70
8
 71
3
 72
8
 73
4
 74
0
 40
0
 40
0
 40
0
 40
0
 40
1
 40
1
 40
1
 40
1
 10
114.121628
 20
160.878403
 30
0.0
 10
113.559019
 20
160.315793
 30
0.0
 10
112.795957
 20
159.999722
 30
0.0
 10
112.000307
 20
159.999721
 30
0.0
  0
LWPOLYLINE
  5
3a9
100
AcDbEntity
  8
0
 62
7
100
AcDbPolyline
 90
2
 70
0
 10
115.000306
 20
196.999718
 30
0.0
 10
115.000306
 20
162.999726
 30
0.0
  0
SPLINE
  5
3aa
100
AcDbEntity
  8
0
 62
7
100
AcDbSpline
 70
8
 71
3
 72
8
 73
4
 74
0
 40
0
 40
0
 40
0
 40
0
 40
1
 40
1
 40
1
 40
1
 10
28.000300
 20
159.999721
 30
0.0
 10
27.204649
 20
159.999720
 30
0.0
 10
26.441586
 20
160.315791
 30
0.0
 10
25.878976
 20
160.878401
 30
0.0
  0
SPLINE
  5
3ab
100
AcDbEntity
  8
0
 62
7
100
AcDbSpline
 70
8
 71
3
 72
8
 73
4
 74
0
 40
0
 40
0
 40
0
 40
0
 40
1
 40
1
 40
1
 40
1
 10
25.878976
 20
160.878401
 30
0.0
 10
25.316365
 20
161.441011
 30
0.0
 10
25.000295
 20
162.204075
 30
0.0
 10
25.000296
 20
162.999726
 30
0.0
  0
LWPOLYLINE
  5
3ac
100
AcDbEntity
  8
0
 62
7
100
AcDbPolyline
 90
2
 70
0
 10
112.000307
 20
159.999721
 30
0.0
 10
28.000300
 20
159.999721
 30
0.0
  0
SPLINE
  5
3ad
100
AcDbEntity
  8
0
 62
7
100
AcDbSpline
 70
8
 71
3
 72
8
 73
4
 74
0
 40
0
 40
0
 40
0
 40
0
 40
1
 40
1
 40
1
 40
1
 10
25.000296
 20
196.999718
 30
0.0
 10
25.000297
 20
197.795369
 30
0.0
 10
24.684226
 20
198.558432
 30
0.0
 10
24.121616
 20
199.121043
 30
0.0
  0
SPLINE
  5
3ae
100
AcDbEntity
  8
0
 62
7
100
AcDbSpline
 70
8
 71
3
 72
8
 73
4
 74
0
 40
0
 40
0
 40
0
 40
0
 40
1
 40
1
 40
1
 40
1
 10
24.121616
 20
199.121043
 30
0.0
 10
23.559006
 20
199.683653
 30
0.0
 10
22.795942
 20
199.999724
 30
0.0
 10
22.000291
 20
199.999722
 30
0.0
  0
LWPOLYLINE
  5
3af
100
AcDbEntity
  8
0
 62
7
100
AcDbPolyline
 90
2
 70
0
 10
25.000296
 20
162.999726
 30
0.0
 10
25.000296
 20
196.999718
 30
0.0
  0
SPLINE
  5
3b0
100
AcDbEntity
  8
0
 62
7
100
AcDbSpline
 70
8
 71
3
 72
8
 73
4
 74
0
 40
0
 40
0
 40
0
 40
0
 40
1
 40
1
 40
1
 40
1
 10
15.000289
 20
199.999722
 30
0.0
 10
6.716020
 20
199.999720
 30
0.0
 10
0.000293
 20
193.283994
 30
0.0
 10
0.000292
 20
184.999725
 30
0.0
  0
LWPOLYLINE
  5
3b1
100
AcDbEntity
  8
0
 62
7
100
AcDbPolyline
 90
2
 70
0
 10
22.000291
 20
199.999722
 30
0.0
 10
15.000289
 20
199.999722
 30
0.0
  0
SPLINE
  5
3b2
100
AcDbEntity
  8
0
 62
7
100
AcDbSpline
 70
8
 71
3
 72
8
 73
4
 74
0
 40
0
 40
0
 40
0
 40
0
 40
1
 40
1
 40
1
 40
1
 10
0.000292
 20
14.999712
 30
0.0
 10
0.000294
 20
6.715443
 30
0.0
 10
6.716020
 20
-0.000284
 30
0.0
 10
15.000289
 20
-0.000286
 30
0.0
  0
LWPOLYLINE
  5
3b3
100
AcDbEntity
  8
0
 62
7
100
AcDbPolyline
 90
2
 70
0
 10
0.000292
 20
184.999725
 30
0.0
 10
0.000292
 20
14.999712
 30
0.0
  0
SPLINE
  5
3b4
100
AcDbEntity
  8
0
 62
7
100
AcDbSpline
 70
8
 71
3
 72
8
 73
4
 74
0
 40
0
 40
0
 40
0
 40
0
 40
1
 40
1
 40
1
 40
1
 10
22.000291
 20
-0.000286
 30
0.0
 10
22.795942
 20
-0.000287
 30
0.0
 10
23.559006
 20
0.315784
 30
0.0
 10
24.121616
 20
0.878394
 30
0.0
  0
SPLINE
  5
3b5
100
AcDbEntity
  8
0
 62
7
100
AcDbSpline
 70
8
 71
3
 72
8
 73
4
 74
0
 40
0
 40
0
 40
0
 40
0
 40
1
 40
1
 40
1
 40
1
 10
24.121616
 20
0.878394
 30
0.0
 10
24.684227
 20
1.441004
 30
0.0
 10
25.000297
 20
2.204068
 30
0.0
 10
25.000296
 20
2.999719
 30
0.0
  0
LWPOLYLINE
  5
3b6
100
AcDbEntity
  8
0
 62
7
100
AcDbPolyline
 90
2
 70
0
 10
15.000289
 20
-0.000286
 30
0.0
 10
22.000291
 20
-0.000286
 30
0.0
  0
SPLINE
  5
3b7
100
AcDbEntity
  8
0
 62
7
100
AcDbSpline
 70
8
 71
3
 72
8
 73
4
 74
0
 40
0
 40
0
 40
0
 40
0
 40
1
 40
1
 40
1
 40
1
 10
25.000296
 20
36.999711
 30
0.0
 10
25.000295
 20
37.795362
 30
0.0
 10
25.316365
 20
38.558426
 30
0.0
 10
25.878976
 20
39.121036
 30
0.0
  0
SPLINE
  5
3b8
100
AcDbEntity
  8
0
 62
7
100
AcDbSpline
 70
8
 71
3
 72
8
 73
4
 74
0
 40
0
 40
0
 40
0
 40
0
 40
1
 40
1
 40
1
 40
1
 10
25.878976
 20
39.121036
 30
0.0
 10
26.441586
 20
39.683646
 30
0.0
 10
27.204649
 20
39.999717
 30
0.0
 10
28.000300
 20
39.999716
 30
0.0
  0
LWPOLYLINE
  5
3b9
100
AcDbEntity
  8
0
 62
7
100
AcDbPolyline
 90
2
 70
0
 10
25.000296
 20
2.999719
 30
0.0
 10
25.000296
 20
36.999711
 30
0.0
  0
SPLINE
  5
3ba
100
AcDbEntity
  8
0
 62
7
100
AcDbSpline
 70
8
 71
3
 72
8
 73
4
 74
0
 40
0
 40
0
 40
0
 40
0
 40
1
 40
1
 40
1
 40
1
 10
112.000307
 20
39.999716
 30
0.0
 10
112.795957
 20
39.999716
 30
0.0
 10
113.559019
 20
39.683645
 30
0.0
 10
114.121628
 20
39.121034
 30
0.0
  0
SPLINE
  5
3bb
100
AcDbEntity
  8
0
 62
7
100
AcDbSpline
 70
8
 71
3
 72
8
 73
4
 74
0
 40
0
 40
0
 40
0
 40
0
 40
1
 40
1
 40
1
 40
1
 10
114.121628
 20
39.121034
 30
0.0
 10
114.684237
 20
38.558424
 30
0.0
 10
115.000307
 20
37.795361
 30
0.0
 10
115.000306
 20
36.999711
 30
0.0
  0
LWPOLYLINE
  5
3bc
100
AcDbEntity
  8
0
 62
7
100
AcDbPolyline
 90
2
 70
0
 10
28.000300
 20
39.999716
 30
0.0
 10
112.000307
 20
39.999716
 30
0.0
  0
SPLINE
  5
3bd
100
AcDbEntity
  8
0
 62
7
100
AcDbSpline
 70
8
 71
3
 72
8
 73
4
 74
0
 40
0
 40
0
 40
0
 40
0
 40
1
 40
1
 40
1
 40
1
 10
115.000306
 20
2.999719
 30
0.0
 10
115.000305
 20
2.204069
 30
0.0
 10
115.316375
 20
1.441006
 30
0.0
 10
115.878984
 20
0.878396
 30
0.0
  0
SPLINE
  5
3be
100
AcDbEntity
  8
0
 62
7
100
AcDbSpline
 70
8
 71
3
 72
8
 73
4
 74
0
 40
0
 40
0
 40
0
 40
0
 40
1
 40
1
 40
1
 40
1
 10
115.878984
 20
0.878396
 30
0.0
 10
116.441593
 20
0.315786
 30
0.0
 10
117.204655
 20
-0.000286
 30
0.0
 10
118.000306
 20
-0.000286
 30
0.0
  0
LWPOLYLINE
  5
3bf
100
AcDbEntity
  8
0
 62
7
100
AcDbPolyline
 90
2
 70
0
 10
115.000306
 20
36.999711
 30
0.0
 10
115.000306
 20
2.999719
 30
0.0
  0
SPLINE
  5
3c0
100
AcDbEntity
  8
0
 62
7
100
AcDbSpline
 70
8
 71
3
 72
8
 73
4
 74
0
 40
0
 40
0
 40
0
 40
0
 40
1
 40
1
 40
1
 40
1
 10
182.000311
 20
-0.000286
 30
0.0
 10
182.795961
 20
-0.000286
 30
0.0
 10
183.559023
 20
0.315786
 30
0.0
 10
184.121633
 20
0.878396
 30
0.0
  0
SPLINE
  5
3c1
100
AcDbEntity
  8
0
 62
7
100
AcDbSpline
 70
8
 71
3
 72
8
 73
4
 74
0
 40
0
 40
0
 40
0
 40
0
 40
1
 40
1
 40
1
 40
1
 10
184.121633
 20
0.878396
 30
0.0
 10
184.684242
 20
1.441006
 30
0.0
 10
185.000312
 20
2.204069
 30
0.0
 10
185.000310
 20
2.999719
 30
0.0
  0
LWPOLYLINE
  5
3c2
100
AcDbEntity
  8
0
 62
7
100
AcDbPolyline
 90
2
 70
0
 10
118.000306
 20
-0.000286
 30
0.0
 10
182.000311
 20
-0.000286
 30
0.0
  0
SPLINE
  5
3c3
100
AcDbEntity
  8
0
 62
7
100
AcDbSpline
 70
8
 71
3
 72
8
 73
4
 74
0
 40
0
 40
0
 40
0
 40
0
 40
1
 40
1
 40
1
 40
1
 10
185.000310
 20
36.999711
 30
0.0
 10
185.000309
 20
37.795361
 30
0.0
 10
185.316379
 20
38.558424
 30
0.0
 10
185.878988
 20
39.121034
 30
0.0
  0
SPLINE
  5
3c4
100
AcDbEntity
  8
0
 62
7
100
AcDbSpline
 70
8
 71
3
 72
8
 73
4
 74
0
 40
0
 40
0
 40
0
 40
0
 40
1
 40
1
 40
1
 40
1
 10
185.878988
 20
39.121034
 30
0.0
 10
186.441597
 20
39.683645
 30
0.0
 10
187.204660
 20
39.999716
 30
0.0
 10
188.000310
 20
39.999716
 30
0.0
  0
LWPOLYLINE
  5
3c5
100
AcDbEntity
  8
0
 62
7
100
AcDbPolyline
 90
2
 70
0
 10
185.000310
 20
2.999719
 30
0.0
 10
185.000310
 20
36.999711
 30
0.0
  0
SPLINE
  5
3c6
100
AcDbEntity
  8
0
 62
7
100
AcDbSpline
 70
8
 71
3
 72
8
 73
4
 74
0
 40
0
 40
0
 40
0
 40
0
 40
1
 40
1
 40
1
 40
1
 10
272.000308
 20
39.999716
 30
0.0
 10
272.795959
 20
39.999717
 30
0.0
 10
273.559023
 20
39.683647
 30
0.0
 10
274.121633
 20
39.121036
 30
0.0
  0
SPLINE
  5
3c7
100
AcDbEntity
  8
0
 62
7
100
AcDbSpline
 70
8
 71
3
 72
8
 73
4
 74
0
 40
0
 40
0
 40
0
 40
0
 40
1
 40
1
 40
1
 40
1
 10
274.121633
 20
39.121036
 30
0.0
 10
274.684244
 20
38.558426
 30
0.0
 10
275.000314
 20
37.795362
 30
0.0
 10
275.000313
 20
36.999711
 30
0.0
  0
LWPOLYLINE
  5
3c8
100
AcDbEntity
  8
0
 62
7
100
AcDbPolyline
 90
2
 70
0
 10
188.000310
 20
39.999716
 30
0.0
 10
272.000308
 20
39.999716
 30
0.0
  0
LWPOLYLINE
  5
3c9
100
AcDbEntity
  8
0
 62
7
100
AcDbPolyline
 90
2
 70
0
 10
275.000313
 20
36.999711
 30
0.0
 10
275.000313
 20
2.999719
 30
0.0
  0
ENDSEC
  0
SECTION
  2
OBJECTS
  0
DICTIONARY
  5
C
330
0
100
AcDbDictionary
  3
ACAD_GROUP
350
D
  3
ACAD_MLINESTYLE
350
17
  0
DICTIONARY
  5
D
330
C
100
AcDbDictionary
  0
DICTIONARY
  5
1A
330
C
100
AcDbDictionary
  0
DICTIONARY
  5
17
330
C
100
AcDbDictionary
  3
STANDARD
350
18
  0
DICTIONARY
  5
19
330
C
100
AcDbDictionary
  0
ENDSEC
  0
EOF
