0
SECTION
2
HEADER
9
$INSUNITS
70
4
9
$ACADVER
1
AC1014
9
$HANDSEED
5
FFFF
0
ENDSEC
0
SECTION
2
TABLES
0
TABLE
2
VPORT
5
8
100
AcDbSymbolTable
0
ENDTAB
0
TABLE
2
LTYPE
5
5
100
AcDbSymbolTable
0
LTYPE
5
14
100
AcDbSymbolTableRecord
100
AcDbLinetypeTableRecord
2
BYBLOCK
70
0
0
LTYPE
5
15
100
AcDbSymbolTableRecord
100
AcDbLinetypeTableRecord
2
BYLAYER
70
0
0
ENDTAB
0
TABLE
2
LAYER
5
2
100
AcDbSymbolTable
70
2
0
LAYER
5
50
100
AcDbSymbolTableRecord
100
AcDbLayerTableRecord
2
0
70
0
6
CONTINUOUS
0
ENDTAB
0
TABLE
2
STYLE
5
3
100
AcDbSymbolTable
70
1
0
STYLE
5
11
100
AcDbSymbolTableRecord
100
AcDbTextStyleTableRecord
2
STANDARD
70
0
0
ENDTAB
0
TABLE
2
VIEW
5
6
100
AcDbSymbolTable
70
0
0
ENDTAB
0
TABLE
2
UCS
5
7
100
AcDbSymbolTable
70
0
0
ENDTAB
0
TABLE
2
APPID
5
9
100
AcDbSymbolTable
70
2
0
APPID
5
12
100
AcDbSymbolTableRecord
100
AcDbRegAppTableRecord
2
ACAD
70
0
0
ENDTAB
0
TABLE
2
DIMSTYLE
5
A
100
AcDbSymbolTable
70
1
0
ENDTAB
0
TABLE
2
BLOCK_RECORD
5
1
100
AcDbSymbolTable
70
1
0
BLOCK_RECORD
5
1F
100
AcDbSymbolTableRecord
100
AcDbBlockTableRecord
2
*MODEL_SPACE
0
BLOCK_RECORD
5
1B
100
AcDbSymbolTableRecord
100
AcDbBlockTableRecord
2
*PAPER_SPACE
0
ENDTAB
0
ENDSEC
0
SECTION
2
BLOCKS
0
BLOCK
5
20
100
AcDbEntity
100
AcDbBlockBegin
2
*MODEL_SPACE
0
ENDBLK
5
21
100
AcDbEntity
100
AcDbBlockEnd
0
BLOCK
5
1C
100
AcDbEntity
100
AcDbBlockBegin
2
*PAPER_SPACE
0
ENDBLK
5
1D
100
AcDbEntity
100
AcDbBlockEnd
0
ENDSEC
0
SECTION
2
ENTITIES
0
CIRCLE
5
100
100
AcDbEntity
8
0
100
AcDbCircle
10
-39.999999999999815
20
39.999999999999638
30
0
40
1.7499999999999925
210
-9.8607613152626476e-32
220
-1.5017790466035453e-31
230
1
0
CIRCLE
5
101
100
AcDbEntity
8
0
100
AcDbCircle
10
39.999999999999751
20
19.999999999999702
30
0
40
1.7499999999999925
210
-9.8607613152626476e-32
220
-1.5017790466035453e-31
230
1
0
CIRCLE
5
102
100
AcDbEntity
8
0
100
AcDbCircle
10
19.999999999999901
20
39.999999999999638
30
0
40
1.7499999999999947
210
-9.8607613152626476e-32
220
-1.5017790466035628e-31
230
1
0
CIRCLE
5
103
100
AcDbEntity
8
0
100
AcDbCircle
10
-5.5913245088227074e-15
20
39.999999999999638
30
0
40
1.7499999999999942
210
-9.8607613152626476e-32
220
-1.5017790466035611e-31
230
1
0
CIRCLE
5
104
100
AcDbEntity
8
0
100
AcDbCircle
10
39.999999999999808
20
39.999999999999638
30
0
40
1.7499999999999925
210
-9.8607613152626476e-32
220
-1.5017790466035453e-31
230
1
0
CIRCLE
5
105
100
AcDbEntity
8
0
100
AcDbCircle
10
-19.999999999999911
20
39.999999999999638
30
0
40
1.7499999999999925
210
-9.8607613152626476e-32
220
-1.5017790466035453e-31
230
1
0
CIRCLE
5
106
100
AcDbEntity
8
0
100
AcDbCircle
10
59.999999999999645
20
19.999999999999702
30
0
40
1.7499999999999925
210
-9.8607613152626476e-32
220
-1.5017790466035453e-31
230
1
0
CIRCLE
5
107
100
AcDbEntity
8
0
100
AcDbCircle
10
19.99999999999979
20
-2.3092638912203261e-13
30
0
40
1.7499999999999947
210
-9.8607613152626476e-32
220
-1.5017790466035628e-31
230
1
0
CIRCLE
5
108
100
AcDbEntity
8
0
100
AcDbCircle
10
19.999999999999847
20
19.999999999999702
30
0
40
1.7499999999999947
210
-9.8607613152626476e-32
220
-1.5017790466035628e-31
230
1
0
CIRCLE
5
109
100
AcDbEntity
8
0
100
AcDbCircle
10
-6.1102475740080286e-14
20
19.999999999999702
30
0
40
1.7499999999999942
210
-9.8607613152626476e-32
220
-1.5017790466035611e-31
230
1
0
CIRCLE
5
110
100
AcDbEntity
8
0
100
AcDbCircle
10
-19.999999999999968
20
19.999999999999702
30
0
40
1.7499999999999925
210
-9.8607613152626476e-32
220
-1.5017790466035453e-31
230
1
0
CIRCLE
5
111
100
AcDbEntity
8
0
100
AcDbCircle
10
-39.999999999999872
20
19.999999999999702
30
0
40
1.7499999999999925
210
-9.8607613152626476e-32
220
-1.5017790466035453e-31
230
1
0
CIRCLE
5
112
100
AcDbEntity
8
0
100
AcDbCircle
10
59.999999999999588
20
-2.3092638912203261e-13
30
0
40
1.7499999999999925
210
-9.8607613152626476e-32
220
-1.5017790466035453e-31
230
1
0
CIRCLE
5
113
100
AcDbEntity
8
0
100
AcDbCircle
10
39.999999999999702
20
-2.3092638912203261e-13
30
0
40
1.7499999999999925
210
-9.8607613152626476e-32
220
-1.5017790466035453e-31
230
1
0
CIRCLE
5
114
100
AcDbEntity
8
0
100
AcDbCircle
10
-20.000000000000021
20
-2.3092638912203261e-13
30
0
40
1.7499999999999925
210
-9.8607613152626476e-32
220
-1.5017790466035453e-31
230
1
0
CIRCLE
5
115
100
AcDbEntity
8
0
100
AcDbCircle
10
-39.999999999999929
20
-2.3092638912203261e-13
30
0
40
1.7499999999999925
210
-9.8607613152626476e-32
220
-1.5017790466035453e-31
230
1
0
CIRCLE
5
116
100
AcDbEntity
8
0
100
AcDbCircle
10
-40.000000000000099
20
-60.000000000000036
30
0
40
1.7499999999999925
210
-9.8607613152626476e-32
220
-1.5017790466035453e-31
230
1
0
CIRCLE
5
117
100
AcDbEntity
8
0
100
AcDbCircle
10
-20.000000000000185
20
-60.000000000000036
30
0
40
1.7499999999999925
210
-9.8607613152626476e-32
220
-1.5017790466035453e-31
230
1
0
CIRCLE
5
118
100
AcDbEntity
8
0
100
AcDbCircle
10
-2.831470806651106e-13
20
-60.000000000000036
30
0
40
1.7499999999999942
210
-9.8607613152626476e-32
220
-1.5017790466035611e-31
230
1
0
CIRCLE
5
119
100
AcDbEntity
8
0
100
AcDbCircle
10
19.999999999999623
20
-60.000000000000036
30
0
40
1.7499999999999947
210
-9.8607613152626476e-32
220
-1.5017790466035628e-31
230
1
0
CIRCLE
5
120
100
AcDbEntity
8
0
100
AcDbCircle
10
39.999999999999531
20
-60.000000000000036
30
0
40
1.7499999999999925
210
-9.8607613152626476e-32
220
-1.5017790466035453e-31
230
1
0
CIRCLE
5
121
100
AcDbEntity
8
0
100
AcDbCircle
10
-59.999999999999943
20
-40.000000000000099
30
0
40
1.7499999999999925
210
-9.8607613152626476e-32
220
-1.5017790466035453e-31
230
1
0
CIRCLE
5
122
100
AcDbEntity
8
0
100
AcDbCircle
10
-59.999999999999893
20
-20.000000000000163
30
0
40
1.7499999999999925
210
-9.8607613152626476e-32
220
-1.5017790466035453e-31
230
1
0
CIRCLE
5
123
100
AcDbEntity
8
0
100
AcDbCircle
10
-59.999999999999844
20
-2.3092638912203261e-13
30
0
40
1.7499999999999925
210
-9.8607613152626476e-32
220
-1.5017790466035453e-31
230
1
0
CIRCLE
5
124
100
AcDbEntity
8
0
100
AcDbCircle
10
-59.999999999999787
20
19.999999999999702
30
0
40
1.7499999999999925
210
-9.8607613152626476e-32
220
-1.5017790466035453e-31
230
1
0
CIRCLE
5
125
100
AcDbEntity
8
0
100
AcDbCircle
10
-59.99999999999973
20
39.999999999999638
30
0
40
1.7499999999999925
210
-9.8607613152626476e-32
220
-1.5017790466035453e-31
230
1
0
CIRCLE
5
126
100
AcDbEntity
8
0
100
AcDbCircle
10
-40.000000000000043
20
-40.000000000000099
30
0
40
1.7499999999999925
210
-9.8607613152626476e-32
220
-1.5017790466035453e-31
230
1
0
CIRCLE
5
127
100
AcDbEntity
8
0
100
AcDbCircle
10
-20.000000000000135
20
-40.000000000000099
30
0
40
1.7499999999999925
210
-9.8607613152626476e-32
220
-1.5017790466035453e-31
230
1
0
CIRCLE
5
128
100
AcDbEntity
8
0
100
AcDbCircle
10
-2.2763592943385302e-13
20
-40.000000000000099
30
0
40
1.7499999999999942
210
-9.8607613152626476e-32
220
-1.5017790466035611e-31
230
1
0
CIRCLE
5
129
100
AcDbEntity
8
0
100
AcDbCircle
10
19.99999999999968
20
-40.000000000000099
30
0
40
1.7499999999999947
210
-9.8607613152626476e-32
220
-1.5017790466035628e-31
230
1
0
CIRCLE
5
130
100
AcDbEntity
8
0
100
AcDbCircle
10
39.999999999999588
20
-40.000000000000099
30
0
40
1.7499999999999925
210
-9.8607613152626476e-32
220
-1.5017790466035453e-31
230
1
0
CIRCLE
5
131
100
AcDbEntity
8
0
100
AcDbCircle
10
59.999999999999488
20
-40.000000000000099
30
0
40
1.7499999999999925
210
-9.8607613152626476e-32
220
-1.5017790466035453e-31
230
1
0
CIRCLE
5
132
100
AcDbEntity
8
0
100
AcDbCircle
10
-39.999999999999986
20
-20.000000000000163
30
0
40
1.7499999999999925
210
-9.8607613152626476e-32
220
-1.5017790466035453e-31
230
1
0
CIRCLE
5
133
100
AcDbEntity
8
0
100
AcDbCircle
10
-20.000000000000075
20
-20.000000000000163
30
0
40
1.7499999999999925
210
-9.8607613152626476e-32
220
-1.5017790466035453e-31
230
1
0
CIRCLE
5
134
100
AcDbEntity
8
0
100
AcDbCircle
10
-1.7212477820259545e-13
20
-20.000000000000163
30
0
40
1.7499999999999942
210
-9.8607613152626476e-32
220
-1.5017790466035611e-31
230
1
0
CIRCLE
5
135
100
AcDbEntity
8
0
100
AcDbCircle
10
19.999999999999737
20
-20.000000000000163
30
0
40
1.7499999999999947
210
-9.8607613152626476e-32
220
-1.5017790466035628e-31
230
1
0
CIRCLE
5
136
100
AcDbEntity
8
0
100
AcDbCircle
10
39.999999999999645
20
-20.000000000000163
30
0
40
1.7499999999999925
210
-9.8607613152626476e-32
220
-1.5017790466035453e-31
230
1
0
CIRCLE
5
137
100
AcDbEntity
8
0
100
AcDbCircle
10
59.999999999999538
20
-20.000000000000163
30
0
40
1.7499999999999925
210
-9.8607613152626476e-32
220
-1.5017790466035453e-31
230
1
0
CIRCLE
5
138
100
AcDbEntity
8
0
100
AcDbCircle
10
-1.1661362697133787e-13
20
-2.3092638912203261e-13
30
0
40
1.7499999999999942
210
-9.8607613152626476e-32
220
-1.5017790466035611e-31
230
1
0
CIRCLE
5
139
100
AcDbEntity
8
0
100
AcDbCircle
10
-39.999999999999766
20
59.999999999999574
30
0
40
1.7499999999999925
210
-9.8607613152626476e-32
220
-1.5017790466035453e-31
230
1
0
CIRCLE
5
140
100
AcDbEntity
8
0
100
AcDbCircle
10
39.999999999999865
20
59.999999999999574
30
0
40
1.7499999999999925
210
-9.8607613152626476e-32
220
-1.5017790466035453e-31
230
1
0
CIRCLE
5
141
100
AcDbEntity
8
0
100
AcDbCircle
10
19.999999999999954
20
59.999999999999574
30
0
40
1.7499999999999947
210
-9.8607613152626476e-32
220
-1.5017790466035628e-31
230
1
0
CIRCLE
5
142
100
AcDbEntity
8
0
100
AcDbCircle
10
4.9919826722434863e-14
20
59.999999999999574
30
0
40
1.7499999999999942
210
-9.8607613152626476e-32
220
-1.5017790466035611e-31
230
1
0
CIRCLE
5
143
100
AcDbEntity
8
0
100
AcDbCircle
10
-19.999999999999854
20
59.999999999999574
30
0
40
1.7499999999999925
210
-9.8607613152626476e-32
220
-1.5017790466035453e-31
230
1
0
CIRCLE
5
144
100
AcDbEntity
8
0
100
AcDbCircle
10
59.999999999999702
20
39.999999999999638
30
0
40
1.7499999999999925
210
-9.8607613152626476e-32
220
-1.5017790466035453e-31
230
1
0
CIRCLE
5
145
100
AcDbEntity
8
0
100
AcDbCircle
10
-1.1661362697133787e-13
20
-2.3092638912203261e-13
30
0
40
79.99999999999973
210
-9.8607613152626476e-32
220
-1.7835150841824929e-31
230
1
0
ENDSEC
0
SECTION
2
OBJECTS
0
DICTIONARY
5
C
100
AcDbDictionary
3
ACAD_GROUP
350
D
3
ACAD_MLINESTYLE
350
17
0
DICTIONARY
5
D
100
AcDbDictionary
0
DICTIONARY
5
1A
330
C
100
AcDbDictionary
0
DICTIONARY
5
17
100
AcDbDictionary
0
ENDSEC
0
EOF
